Log in

One click and you are in

Login with Facebook Login with Google

Why sign up and log in

Guitar Tabs Explorer
Joe Bonamassa guitar tabs for Song of yesterday

Guitar tabs

Hi this is the tab for all of the song EXCEPT THE SOLO
this is my first time doing a tab before so.....
Enjoy

/ slide up
\ slide down
P Pull off

By: Joe Bonamassa
Intro:
A chord diagramA minorAm                  A chord diagramC majorC                A chord diagramG+G                  A chord diagramFF
-----------5-8/10--P8--------8---8-|------------------------------------------|
---------5------------8---8--------|-------12---12------12\10------10---------|
-------5----------------9------9---|------------------------------------------|
-----7-----------------------------|-10/12----------12----------10-------10---|
-0---------------------------------|------------------------------------------|
-----------------------------------|------------------------------------------|
            + Here, be sure to hammer on to the 8 properly before sliding up to 10!!!!!

A chord diagramA minorAm                  A chord diagramC majorC                A chord diagramG+G                  A chord diagramFF
-----------5-8/10--P8--------8-----|------------------------------------------|
---------5------------8---8------8-|------------12------12\10------10---------|
-------5----------------9------9---|------------------------------------------|
-----7-----------------------------|-10/12--12-------12--------10--------10---|
-0---------------------------------|------------------------------------------|
-----------------------------------|------------------------------------------|

A chord diagramA minorAm                  A chord diagramC majorC                A chord diagramG+G                  A chord diagramFF
-----------5-8/10--P8--------8-----|------------------------------------------|
---------5------------8---8------8-|------------12------12\10------10---------|
-------5----------------9------9---|------------------------------------------|
-----7-----------------------------|-10/12--12------12---------10--------10---|
-0---------------------------------|------------------------------------------|
-----------------------------------|------------------------------------------|

A chord diagramA minorAm                  A chord diagramC majorC                A chord diagramG+G                  A chord diagramFF
-----------5-8/10--P8--------8-----|------------------------------------------|
---------5------------8---8------8-|-------12-------12--12\10------10---------|
-------5----------------9------9---|------------------------------------------|
-----7-----------------------------|-10/12-----12--------------10--------10---|
-0---------------------------------|------------------------------------------|
-----------------------------------|------------------------------------------|

Each part is just played through once at the beginning and then the same pattern is
repeated at different parts throughout the song.

It is played like this on the live version.

-----------5-8/10--P8--------8-----|------------------------------------------|
---------5------------8---8------8-|------------12-----12-12\10------10-------|
-------5----------------9------9---|------------------------------------------|
-----7-----------------------------|-10/12--12------12-----------10------10---|
-0---------------------------------|------------------------------------------|
-----------------------------------|------------------------------------------|

The part after the intro is played like this:

Verse
A chord diagramA minorAm                                                        A chord diagramD/F#D/F#
----------------------------------------------------------------------------------|
----------------5----------------5------------------------------------------------|
------5---------------5-----------------5----------5--------------------7---------|
-----------7-----------------7---------------7--------------------7---------------|
-0--------------------------------------------------------7/9---------------------|
----------------------------------------------------------------------------------|


Chorus
------------------------------------|---------------------------------------------|
------------------------------------|---------------------------------------------|
------------------------------------|-5/7--7--7--7--------------------------------|
------------------------------------|-5/7--7--7--7--------------------------------|
------------------------------------|-3/5--5--5--5---------------------3----------|
-3/5--5--5--5--8-5--8-5--8--5--5--5-|--------------0--------0---3--5-------5------|

------------------------------------|---------------------------------------------|
-10-10-10-10-10--8--8--8--8--8--8--8|-8--8--8--8--8-------------------------------|
-9--9--9--9--9---7--7--7--7--7--7--7|-7--7--7--7--7---7--7--7--7--7---------------|
-7--7--7--7--7---5--5--5--5--5--5--5|-5--5--5--5--5---4--4--4--4--4---------------|
-0--0--0--0--0---0--0--0--0--0--0--0|-0--0--0--0--0---0--0--0--0--0---------------|
------------------------------------|---------------------------------------------|


That's pretty much it. If i find a tab for the solo i will add it on but for the mean
while that is is.

Almost there ...

Sign in to get your own page with links to favourite songs and more. You are just one click away...

Login with Facebook Login with Google