Log in

One click and you are in

Login with Facebook Login with Google

Why sign up and log in

Guitar Tabs Explorer
Joe Bonamassa bass tabs for No good place for the lonely

No Good Place For The Lonely bass tab by Joe Bonamassa

Joe Bonamassa bass tabs for No good place for the lonely

Bass tabs with lyrics

No good place for the lonely
Joe Bonamassa
Album: Blues desperation

Tuning: EADG – Key: C
Blues
Intro: 00:01
G|-----------------------------------|----------------------------------
D|----------5b-----------------------|----------5b----------------------
A|---1-2-3~-----3-3~--2p--3~-------3~|---1-2-3~-----3-3~--2p--3~------3~
E|-3-------------------------3--6----|-3-------------------------3--6---

G|----------5b-----------------------|----------------------------------
D|---1-2-3~-----3-3~--2p--3~-------3~|----------5b----------------------
A|-3-------------------------3--6----|---1-2-3~-----3-3~--2p--3~------3~
E|-----------------------------------|-3-------------------------3--6---

G|----------7b-------------5b-----------------------------------------|-
D|---3-4-5~-----5-5~--5/3~-----3-3~--1b-------------------------------|-
A|-3-------------------------------------3~--2p--3h-----------3~~~~~~-|-
E|----------------------------------------------------3---6-----------|-

Pause...

Reprise: 00:45
G|-----------------|-----------------|-
D|-----5.----------|-----5.----------|-
A|-3b-------3---3--|-3b-------3---3--|- x2
E|--------3---3---3|--------3---3---3|-


Verse 1: 00:58
G|-----------------|-----------------|-
D|-----5.----------|-----5.----------|-
A|-3b-------3---3--|-3b-------3---3--|- x3
E|--------3---3---3|--------3---3---3|-
I keep walking, walking these cold city streets
Reliving all the wrong you’ve done to me
I look for some dark alleyway where I can hide

G|-----------------|-----------------|-
D|-----5.----------|-----5~---5-3----|-
A|-3b-------3---3--|-3b-----------6\-|-
E|--------3---3---3|-----------------|-
Don’t want no stranger oh to see me cry


Bridge: 01:26
G|----------------3---|----------------4---|-
D|-1~-1-1--1-1--1---1/|-2~-2-2--2-2--2---2/|-
A|--------------------|--------------------|-
E|--------------------|--------------------|-
I keep searching this world
For someone to hold me

G|----------------5---|------7-5------------|-
D|-3~-3-3--3-3--3---3/|-5~~------8-5--------|-
A|--------------------|--------------8-6\(3)|-
E|--------------------|---------------------|-
Like you used to hold me
But there’s no good place for the lonely


Interlude: 01:40
G|-----------------|-----------------|-
D|-----5.----------|-----5.----------|-
A|-3b-------3---3--|-3b-------3---3--|- x2
E|--------3---3---3|--------3---3---3|-


Verse 2: 01:54
G|-----------------|-----------------|-
D|-----5.----------|-----5.----------|-
A|-3b-------3---3--|-3b-------3---3--|- x3
E|--------3---3---3|--------3---3---3|-
Oh, one thing I found out about these memories
Sometimes they are sad even when they’re sweet
Every time a good thing has turned out to be bad

G|-----------------|-----------------|-
D|-----5.----------|-----5~---5-3----|-
A|-3b-------3---3--|-3b-----------6\-|-
E|--------3---3---3|-----------------|-
It might be the best thing, baby, you’re gonna ever have


Bridge: 02:20
G|----------------3---|----------------4---|-
D|-1~-1-1--1-1--1---1/|-2~-2-2--2-2--2---2/|-
A|--------------------|--------------------|-
E|--------------------|--------------------|-
I keep searching this world
For someone to hold me

G|----------------5---|------7-5------------|-
D|-3~-3-3--3-3--3---3/|-5~~------8-5--------|-
A|--------------------|--------------8-6\(3)|-
E|--------------------|---------------------|-
Like you used to hold me
But there’s no good place for the lonely


Interlude: 02:35
G|-----------------|-----------------|-
D|-----5.----------|-----5.----------|-
A|-3b-------3---3--|-3b-------3---3--|-
E|--------3---3---3|--------3---3---3|-


Bridge: 02:41
G|----------------------------------------|-
D|-5-3------------------------------------|-
A|-----5-6~--5-6--6-6--6-6----3--3-3--5---|- x3
E|--------------------------3-----------3-|-
I don’t know where I go from here
Cause every day, baby, it’s a little more clear
No one’s ever gonna know me like you know me

G|------------------------------------------------|-
D|-5-3-------------------------------------5-3----|-
A|-----5-6~--6-6--6-6--6-6--6-5~-5-5--5--------5\-|-
E|--------------------------------------3~--------|-
But there’s no good place for the lonely


Interlude: 03:10
G|-----------------|-----------------|-
D|-----5.----------|-----5.----------|-
A|-3b-------3---3--|-3b-------3---3--|- x2
E|--------3---3---3|--------3---3---3|-


Verse 3: 03:24
G|-----------------|-----------------|-
D|-----5.----------|-----5.----------|-
A|-3b-------3---3--|-3b-------3---3--|-
E|--------3---3---3|--------3---3---3|-
I’ve been through the boss and I’ve got all the scars
G|-----------------|-----------------|-
D|-----5.----------|-----5~---5-3----|-
A|-3b-------3---3--|-3b-----------6\-|-
E|--------3---3---3|-----------------|-
Prove how hard love can be, beyond love


Bridge: 03:37
G|----------------3---|----------------4---|-
D|-1~-1-1--1-1--1---1/|-2~-2-2--2-2--2---2/|-
A|--------------------|--------------------|-
E|--------------------|--------------------|-
I keep searching this world
For someone to hold me

G|----------------5---|------7-5------------|-
D|-3~-3-3--3-3--3---3/|-5~~------8-5--------|-
A|--------------------|--------------8-6\(3)|-
E|--------------------|---------------------|-
Like you used to hold me
But there’s no good place for the lonely


Interlude: 03:41
G|-----------------|-----------------|-
D|-----5.----------|-------5~~-------|-
A|-3b-------3---3--|-3--6------6-5-3-|-
E|--------3---3---3|-----------------|-

Cause this place is no good for the lonely

G|-----------------|-----------------||-
D|-----5.----------|-----5.----------||-
A|-3b-------3---3--|-3b-------3---3--||-
E|--------3---3---3|--------3---3---3||-


Solo 1: 04:05
G|-----------------------------------|----------------------------------|-
D|----------5b-----------------------|----------5b----------------------|-
A|---1-2-3~-----3-3~--2p--3~-------3~|---1-2-3~-----3-3~--2p--3~------3~|-
E|-3-------------------------3--6----|-3-------------------------3--6---|-

G|----------5b-----------------------|----------------------------------|-
D|---1-2-3~-----3-3~--2p--3~-------3~|----------5b----------------------|-
A|-3-------------------------3--6----|---1-2-3~-----3-3~--2p--3~------3~|-
E|-----------------------------------|-3-------------------------3--6---|-

G|----------7b-------------5b-------------------------------------------|-
D|---3-4-5~-----5-5~--5/3~-----3-3~--1b---------------------------------|-
A|-3-------------------------------------3~--2p--3h-----------3~~~~~--~-|-
E|----------------------------------------------------3---6-------------|-


Pause >> 04:51 reprise Drums ++ + + ++ + + + + + + + + + + + +

G|--------------------------|--------------------------|-
D|--------------------------|--------------------------|-
A|---1-2-3~--1-3-----3~-3-3-|---1-2-3~--1-3-----3~-3-3-|-
E|-3--------------3b--------|-3--------------3b--------|-

G|--------------------------|--------------------------|-
D|---1-2-3~--1-3-----3~-3-3-|--------------------------|-
A|-3--------------3b--------|---1-2-3~--1-3-----3~-3-3-|-
E|3-------------------------|-3--------------3b--------|-

G|----------------------------------------------------------------|-
D|---3-4-5~--5-5~----5~---3--3-3----------------------------------|-
A|-3--------------5b----5-------------6-5---3~--3-3--------3~-3-3-|-
E|--------------------------------3-6-----6----------3--6---------|-

... 05:35

G|-----------------------------------|----------------------------------
D|----------5b-----------------------|----------5b----------------------
A|---1-2-3~-----3-3~--2p--3~-------3~|---1-2-3~-----3-3~--1-2-3~------3~
E|-3-------------------------3--6----|-3-------------------------3--6---

G|----------5b-----------------------|----------------------------------
D|---1-2-3~-----3-3~--2p--3~-------3~|----------5b----------------------
A|-3-------------------------3--6----|---1-2-3~-----3-3~--2p--3~------3~
E|-----------------------------------|-3-------------------------3--6---

G|--------------------------------------------------------7-5-------------|
D|---3-4-5~--5-5~----5~---3--3-3------------------\555555-----8-5---------|
A|-3--------------5b----5-------------6-5---333333----------------8-6-5-0~|
E|--------------------------------3-6-----6-------------------------------|


... 06:18

G|---------------|--------------------|--------------------|-
D|---------------|--------------------|--------------------|-
A|-3~---3~---3~--|---1-2-3~---3~---3~-|---1-2-3~---3~---3~-|-
E|----3----3-----|-3--------3----3----|-3--------3----3----|-

G|------------------|-----------------|-----------------------------|-
D|------------------|---1-2-3~---3---3|-1-3~---3---3--5-3-----------|-
A|---1-2-3~-3-3-3-3-|-3--------3---3--|------3---3--------6-5-3--(3)|-
E|-3-------3-3-3-3-3|-----------------|-------------------------6---|-

G|------------|-------------------|------------5---5-|-
D|------------|-------------------|---3-4-5~-5---5---|-
A|-3~---3---3-|---1-2-3~-------3~-|-3----------------|-
E|----3---3---|-3--------3--6-----|------------------|-

G|----------------------------------------|--5-3--------------------||-
D|55---5-3~----3---3----------------------|------5-3----------------||-
A|---5-------3---3--------6-5---3--33--33-|3---------6-5-3-3333333--||-
E|--------------------3-6-----6-----------|-------------------------||-

... 06:59

G|----------------|----------------------|--------------------|-
D|----------------|----------------------|--------------------|-
A|--3~---3----3---|-----6-5---3~---3---3-|-----1-3~---3~---3~-|-
E|-----3----3-----|-3-6-----6----3---3---|-1-3------3----3----|-

G|-----------------------------|---------------------------------|-
D|-----------10-9--------------|-3~---3---3------6-5---3---3---3-|-
A|---1-/-10~------10-9-6-5-(3)-|----3---3----3-6-----6---3---3---|-
E|-3---------------------------|---------------------------------|-

G|------------------|------------------|------------5---5-|-
D|-5-3--------------|------------------|---3-4-5~-5---5---|-
A|-----6-3~---3---3-|-------3~---3---3-|-3----------------|-
E|----------3---3---|-3b-6-----3---3---|------------------|-


G|-------------------------------------------------------||-
D|55---5-3~----3---3-------------------------------------||-
A|---5-------3---3--------6-5---3--33-33-33-33-33-33-33--||-
E|--------------------3-6-----6--------------------------||-


... 07:41

G|-----------------------|--------------------------|-
D|-----------------------|--------------------------|-
A|-3~----3---3-----6-5---|-3~----3---3------3-6-5---|-
E|-----3---3---3-6-----6-|-----3---3----3-6-------6-|-


G|-----------------------|--------------------------|-
D|-----------------------|-------------------6-5----|-
A|-3~----3---3---3---3---|-3~----3---3---3-6-----6\-|-
E|-----3---3---3---3---3-|-----3---3----------------|-


G|-----------------------|--------------------------|-
D|-3~----3---3-----6-5---|-3~----3---3--------------|-
A|-----3---3---3-6-----6-|-----3---3--------3-6-5---|-
E|-----------------------|--------------3-6-------6-|-

G|-----------------------|---------------------------------7---|-
D|-----------------------|-----------------3-4-5---5---5~----5-|-
A|-3~----3---3-----6-5---|-3~----3---3---5-------5---5---------|-
E|-----3---3---3-6-----6-|-----3---3---------------------------|-

G|-------------------------------------------------------------------||
D|-3~----3---3---5b--------------------------------------------------||
A|-----3---3---------3~----3---3---2b---3~-33333333333333~-3--3---3~-||
E|-----------------------3---3---------------------------------------||


End: 08:39

Almost there ...

Sign in to get your own page with links to favourite songs and more. You are just one click away...

Login with Facebook Login with Google