Log in

One click and you are in

Login with Facebook Login with Google

Why sign up and log in

Guitar Tabs Explorer
Joe Bonamassa bass tabs for Lookout man

Bass tabs

Tuning: Drop C#


Intro:

G |-------------------------------------|
D |-------------------------------------|
A |-------------------------------------|
C#|-0-3-5--5br-3-5-3---0-3-5br--6-5-3-5-| x4

Verse 1:

G |-------------------------------------|
D |-------------------------------------|
A |-------------------------------------|
C#|-0-3-5--5br-3-5-3---0-3-5br--6-5-3-5-| x10


Chorus:

G |---------------------------------|
D |---------------------------------|
A |---------------------------------|
C#|-7-7-7-7-7-7-7-7-7-7-7-7-7-7-7-5-|

G |------------------------------------|
D |------------------------------------|
A |------------------------------------|
C#|-7-7-7-7-7-7-7-7-7-7-7-7-7-10-10-12-|


Verse 2:

G |-------------------------------------|
D |-------------------------------------|
A |-------------------------------------|
C#|-0-3-5--5br-3-5-3---0-3-5br--6-5-3-5-| x10


Chorus:

G |---------------------------------|
D |---------------------------------|
A |---------------------------------|
C#|-7-7-7-7-7-7-7-7-7-7-7-7-7-7-7-5-|

G |------------------------------------|
D |------------------------------------|
A |------------------------------------|
C#|-7-7-7-7-7-7-7-7-7-7-7-7-7-10-10-12-|


Bridge:

G |-------------------------------------|
D |-------------------------------------|
A |-------------------------------------|
C#|-0-3-5--5br-3-5-3---0-3-5br--6-5-3-5-| x4


Chorus:

G |---------------------------------|
D |---------------------------------|
A |---------------------------------|
C#|-7-7-7-7-7-7-7-7-7-7-7-7-7-7-7-5-|

G |------------------------------------|
D |------------------------------------|
A |------------------------------------|
C#|-7-7-7-7-7-7-7-7-7-7-7-7-7-10-10-12-|


Outro:

G |-----------------------------------------------|
D |-----------------------------------------------|
A |-----------------------------------------------|
C#|---0-0-0---0-0---0-0---0-0---0-0---0-0---0-0-3-|

G |-----------------------------------------------|
D |-----------------------------------------------|
A |-----------------------------------------------|
C#|---0-0---0-0---0-0---0-0---0-0---0-0---0-0-0-1-|


************************************

| br Bend release


************************************

Almost there ...

Sign in to get your own page with links to favourite songs and more. You are just one click away...

Login with Facebook Login with Google