Log in

One click and you are in

Login with Facebook Login with Google

Why sign up and log in

Guitar Tabs Explorer
Joe Bonamassa bass tabs for Cadillac assembly line live

Cadillac Assembly Line Live bass tab by Joe Bonamassa

Joe Bonamassa bass tabs for Cadillac assembly line live

Bass tabs

Intro:
G|--------------------|--------------------|
D|---7-5------------7-|---7-5---------10-7-|
A|--------7-10-7-10---|--------7-10-7------| x4
E|-5------------------|-5------------------|

Verse 1:
G|--------------------|--------------------|--------------------|--------------------|
D|---7-5------------7-|---7-5---------10-7-|---7-5------------7-|---7-5---------10-7-|
A|--------7-10-7-10---|--------7-10-7------|--------7-10-7-10---|--------7-10-7------|
E|-5------------------|-5------------------|-5------------------|-5------------------|

G|--------------------|--------------------|--------------------|--------------------|
D|---3-1------------6-|---3-1------------6-|---7-5------------7-|---7-5---------10-7-|
A|--------3--6-3--6---|--------3--6-3--6---|--------7-10-7-10---|--------7-10-7------|
E|-1------------------|-1------------------|-5------------------|-5------------------|

G|--------------------|--------------------|--------------------|--------------------|
D|---2-0--------------|--------------------|---7-5---------10-7-|---7-5--------------|
A|--------2-5-2-5-2---|--------------------|--------7-10-7------|--------------------|
E|-0----------------0-|--------------------|-5------------------|-5--------------3-4-|


Verse 2:
G|--------------------|--------------------|--------------------|--------------------|
D|---7-5--5---5---5h7-|---7-5---------10-7-|---7-5--5---5---5h7-|---7-5--------------|
A|----------7---7-----|--------7-10-7------|----------7---7-----|--------------------|
E|-5------------------|-5------------------|-5------------------|-5-----3-4-5--5-4-3-|

G|--------------------|--------------------|--------------------|--------------------|
D|---3-1------------6-|---3-1------------6-|---7-5------------7-|---7-5---------10-7-|
A|--------3--6-3--6---|--------3--6-3--6---|--------7-10-7-10---|--------7-10-7------|
E|-1------------------|-1------------------|-5------------------|-5------------------|

G|--------------------|--------------------|--------------------|--------------------|
D|---2-0--------------|--------------------|---7-5------------7-|---7-5--------------|
A|--------2-5-2-5-2---|--------------------|--------7-10-7-10---|--------------------|
E|-0----------------0-|--------------------|-5------------------|-5--------------3-4-|


Solo:
G|--------------------|--------------------|--------------------|--------------------|
D|---7-5------------7-|---7-5---------10-7-|---7-5------------7-|---7-5--------------|
A|--------7-10-7-10---|--------7-10-7------|--------7-10-7-10---|--------------------|
E|-5------------------|-5------------------|-5------------------|-5----3-5-3-5-4-3-2-|

G|--------------------|--------------------|--------------------|--------------------|
D|---3-1------------6-|----3-1-------6h7-3-|---7-5------------7-|---7-5---------10-7-|
A|--------3--6-3--6---|--------3-6-3-------|--------7-10-7-10---|--------7-10-7------|
E|-1------------------|-1-1----------------|-5------------------|-5------------------|

G|--------------------|--------------------|--------------------|--------------------|
D|---2-0--------------|--------------------|---7-5------------7-|---7-5--------------|
A|--------2-5-2-5-2---|--------------------|--------7-10-7-10---|--------------------|
E|-0----------------0-|--------------------|-5------------------|-5--------------3-4-|


Verse 3:
G|--------------------|--------------------|--------------------|--------------------|
D|---7-5------------7-|---7-5---------10-7-|---7-5------------7-|---7-5---------10-7-|
A|--------7-10-7-10---|--------7-10-7------|--------7-10-7-10---|--------7-10-7------|
E|-5------------------|-5------------------|-5------------------|-5------------------|

G|--------------------|--------------------|--------------------|--------------------|
D|---3-1------------6-|---3-1------------6-|---7-5------------7-|---7-5---------10-7-|
A|--------3--6-3--6---|--------3--6-3--6---|--------7-10-7-10---|--------7-10-7------|
E|-1------------------|-1------------------|-5------------------|-5------------------|

G|--------------------|--------------------|--------------------|--------------------|
D|---2-0--------2-1-0-|--------------------|---7-5---------10-7-|-----7-5------------|
A|--------2-5-2-------|--------------------|--------7-10-7------|--------------------|
E|-0------------------|--------------------|-5------------------|-5-5------------3-4-|


Bridge:
G|--------------------|--------------------|--------------------|--------------------|
D|---5-3---3--3---3h5-|----5-3---3--3--3h5-|---5-3---3-x-3--3h5-|---5-3---3----------|
A|-------5------5-----|--------5-----5-----|-------5------5-----|-------5------------|
E|-3------------------|-3-3----------------|-3------------------|-3--------------3-4-|

G|--------------------|--------------------|--------------------|--------------------|
D|---7-5------------7-|-----7-5------------|---7-5------------7-|-----7-5------------|
A|--------7-10-7-10---|--------------------|--------7-10-7-10---|--------------------|
E|-5------------------|-5--------------3-4-|-5------------------|-5--------------3-4-|

G|--------------------|--------------------|--------------------|--------------------|
D|---7-5------------7-|-----7-5------------|---7-5------------7-|-----7-5------------|
A|--------7-10-7-10---|--------------------|--------7-10-7-10---|--------------------|
E|-5------------------|-5-5------------3-4-|-5------------------|-5-5------------3-4-|


End Solo:
G|--------------------|--------------------|--------------------|--------------------|
D|---7-5------------7-|-----7-5------------|---7-5------------7-|-----7-5------------|
A|--------7-10-7-10---|--------------------|--------7-10-7-10---|--------------------| x10
E|-5------------------|-5-5------------3-4-|-5------------------|-5-5------------3-4-|

Almost there ...

Sign in to get your own page with links to favourite songs and more. You are just one click away...

Login with Facebook Login with Google