Log in

One click and you are in

Login with Facebook Login with Google

Why sign up and log in

Guitar Tabs Explorer
Joe Bonamassa guitar tabs for Bridge to better days

Guitar tabs

Joe Bonamassa - Bridge To Better Days

I've done this from a live performance so it might not be accurate to the studio one.


Main Riff/Intro

e---------------------------3-3-3-3-3-3-3---------|
b---------------------------5-5-5-5-5-5-5---------|
g--------------------------------------------5----|
d-------------------------------------------------|
a-------------------------------------------------|
e---3-5----3-5------3-5---------------------------|
Chorus
    A chord diagramA minorAm          A chord diagramE MajorE      A chord diagramG+G
e------------------------------|
b---1--------------------------|
g---2-----------1------4-------|
d---2-----------2------5-------|
a---------------2------5-------|
e------------------------------|


Solo Riff

e---------------------------------------------|
b---------------------------------------------|
g-------5-----------5----------5-----3-4-5----|
d--5-7----7----5-7----7---5-7-----7--4-5-6----|
a------------------------------------4-5-6----|
e------------------------------------2-3-4----|

Improv Solo in A chord diagramA augmentedA pentatonic me think


well thats what my ears tell me, not sure on the chorus comment improvements plz

Almost there ...

Sign in to get your own page with links to favourite songs and more. You are just one click away...

Login with Facebook Login with Google