Log in

One click and you are in

Login with Facebook Login with Google

Why sign up and log in

Guitar Tabs Explorer
Bon Jovi guitar tabs for Two story town

Guitar tabs

Tuning: Standard (E A D G B E)


Intro:

e|-------------0-0-0-----------------------------------3---------------------|
B|-------------1-1-1-x-x-x-x---1-------1-1-1-----------3---------------------|
G|-5-4-----2-2-2-2-2-x-x-x-x---2-0-----------x-x-x-x-------------------------|
D|-----7---2-2-2-2-2-x-x-x-x-3-3-0-2-2-2-2-2-x-x-x-x-------------------------|
A|---------0-0-------x-x-x-x-3-3-0-3-3-3-3-3-x-x-x-x-2-----------------------|
E|-------------------x-x-x-x-1---------------x-x-x-x-3-----------------------|

e|-----0-0-0-----------------------------------3-----------------------------|
B|-----1-1-1-x-x-x-x---1-------1-1-1-----------3-----------------------------|
G|-2-2-2-2-2-x-x-x-x---2-0-----------x-x-x-x---------------------------------|
D|-2-2-2-2-2-x-x-x-x-3-3-0-2-2-2-2-2-x-x-x-x---------------------------------|
A|-0-0-------x-x-x-x-3-3-0-3-3-3-3-3-x-x-x-x-2-------------------------------|
E|-----------x-x-x-x-1---------------x-x-x-x-3-------------------------------|

e|---------------------------------------------------------------------------|
B|-8/10~-8/10~-8/10-8--------------------------------------------------------|
G|---------------------------------------------------------------------------|
D|---------------------------------------------------------------------------|
A|---------------------------------------------------------------------------|
E|---------------------------------------------------------------------------|


Verse 1:

e|-------------0-0-0-----------------------------------3---------------------|
B|-------------1-1-1-x-x-x-x---1-------1-1-1-----------3---------------------|
G|-5-4-----2-2-2-2-2-x-x-x-x---2-0-----------x-x-x-x-------------------------|
D|-----7---2-2-2-2-2-x-x-x-x-3-3-0-2-2-2-2-2-x-x-x-x-------------------------|
A|---------0-0-------x-x-x-x-3-3-0-3-3-3-3-3-x-x-x-x-2-----------------------|
E|-------------------x-x-x-x-1---------------x-x-x-x-3-----------------------|

e|-----0-0-0-----------------------------------3-----------------------------|
B|-----1-1-1-x-x-x-x---1-------1-1-1-----------3-----------------------------|
G|-2-2-2-2-2-x-x-x-x---2-0-----------x-x-x-x---------------------------------|
D|-2-2-2-2-2-x-x-x-x-3-3-0-2-2-2-2-2-x-x-x-x---------------------------------|
A|-0-0-------x-x-x-x-3-3-0-3-3-3-3-3-x-x-x-x-2-------------------------------|
E|-----------x-x-x-x-1---------------x-x-x-x-3-------------------------------|

e|-------------0-0-0-----------------------------------3---------------------|
B|-------------1-1-1-x-x-x-x---1-------1-1-1-----------3---------------------|
G|-5-4-----2-2-2-2-2-x-x-x-x---2-0-----------x-x-x-x-------------------------|
D|-----7---2-2-2-2-2-x-x-x-x-3-3-0-2-2-2-2-2-x-x-x-x-------------------------|
A|---------0-0-------x-x-x-x-3-3-0-3-3-3-3-3-x-x-x-x-2-----------------------|
E|-------------------x-x-x-x-1---------------x-x-x-x-3-----------------------|

e|-----0-0-0-----------------------------------3-----------------------------|
B|-----1-1-1-x-x-x-x---1-------1-1-1-----------3-----------------------------|
G|-2-2-2-2-2-x-x-x-x---2-0-----------x-x-x-x---------------------------------|
D|-2-2-2-2-2-x-x-x-x-3-3-0-2-2-2-2-2-x-x-x-x---------------------------------|
A|-0-0-------x-x-x-x-3-3-0-3-3-3-3-3-x-x-x-x-2-------------------------------|
E|-----------x-x-x-x-1---------------x-x-x-x-3-------------------------------|


Pre-Chorus:

e|---------------------------------------------------------------------------|
B|---------------------------------------------------------------------------|
G|---2-----------------------------------------------------------------------|
D|-3-2-3/5-6h7p6h7p6h7p6h7---------------------------------------------------|
A|-3-0-3/5-------------------------------------------------------------------|
E|-1---1/3-------------------------------------------------------------------|


Chorus:

e|-------------0-0-0-----------------------------------3---------------------|
B|-------------1-1-1-x-x-x-x---1-------1-1-1-----------3---------------------|
G|-5-4-----2-2-2-2-2-x-x-x-x---2-0-----------x-x-x-x-------------------------|
D|-----7---2-2-2-2-2-x-x-x-x-3-3-0-2-2-2-2-2-x-x-x-x-------------------------|
A|---------0-0-------x-x-x-x-3-3-0-3-3-3-3-3-x-x-x-x-2-----------------------|
E|-------------------x-x-x-x-1---------------x-x-x-x-3-----------------------|

e|-----0-0-0-----------------------------------3-----------------------------|
B|-----1-1-1-x-x-x-x---1-------1-1-1-----------3-----------------------------|
G|-2-2-2-2-2-x-x-x-x---2-0-----------x-x-x-x---------------------------------|
D|-2-2-2-2-2-x-x-x-x-3-3-0-2-2-2-2-2-x-x-x-x---------------------------------|
A|-0-0-------x-x-x-x-3-3-0-3-3-3-3-3-x-x-x-x-2-------------------------------|
E|-----------x-x-x-x-1---------------x-x-x-x-3-------------------------------|

e|---------------------------------------------------------------------------|
B|---------------------------------------------------------------------------|
G|-5-------------------------------------------------------------------------|
D|-5-3-7-5-3\5---------------------------------------------------------------|
A|-3-3-7-5-3\5---------------------------------------------------------------|
E|---1-5-3-1\3---------------------------------------------------------------|



Verse 2:

e|-------------0-0-0-----------------------------------3---------------------|
B|-------------1-1-1-x-x-x-x---1-------1-1-1-----------3---------------------|
G|-5-4-----2-2-2-2-2-x-x-x-x---2-0-----------x-x-x-x-------------------------|
D|-----7---2-2-2-2-2-x-x-x-x-3-3-0-2-2-2-2-2-x-x-x-x-------------------------|
A|---------0-0-------x-x-x-x-3-3-0-3-3-3-3-3-x-x-x-x-2-----------------------|
E|-------------------x-x-x-x-1---------------x-x-x-x-3-----------------------|

e|-----0-0-0-----------------------------------3-----------------------------|
B|-----1-1-1-x-x-x-x---1-------1-1-1-----------3-----------------------------|
G|-2-2-2-2-2-x-x-x-x---2-0-----------x-x-x-x---------------------------------|
D|-2-2-2-2-2-x-x-x-x-3-3-0-2-2-2-2-2-x-x-x-x---------------------------------|
A|-0-0-------x-x-x-x-3-3-0-3-3-3-3-3-x-x-x-x-2-------------------------------|
E|-----------x-x-x-x-1---------------x-x-x-x-3-------------------------------|

e|-------------0-0-0-----------------------------------3---------------------|
B|-------------1-1-1-x-x-x-x---1-------1-1-1-----------3---------------------|
G|-5-4-----2-2-2-2-2-x-x-x-x---2-0-----------x-x-x-x-------------------------|
D|-----7---2-2-2-2-2-x-x-x-x-3-3-0-2-2-2-2-2-x-x-x-x-------------------------|
A|---------0-0-------x-x-x-x-3-3-0-3-3-3-3-3-x-x-x-x-2-----------------------|
E|-------------------x-x-x-x-1---------------x-x-x-x-3-----------------------|

e|-----0-0-0-----------------------------------3-----------------------------|
B|-----1-1-1-x-x-x-x---1-------1-1-1-----------3-----------------------------|
G|-2-2-2-2-2-x-x-x-x---2-0-----------x-x-x-x---------------------------------|
D|-2-2-2-2-2-x-x-x-x-3-3-0-2-2-2-2-2-x-x-x-x---------------------------------|
A|-0-0-------x-x-x-x-3-3-0-3-3-3-3-3-x-x-x-x-2-------------------------------|
E|-----------x-x-x-x-1---------------x-x-x-x-3-------------------------------|


Chorus:

e|-------------0-0-0-----------------------------------3---------------------|
B|-------------1-1-1-x-x-x-x---1-------1-1-1-----------3---------------------|
G|-5-4-----2-2-2-2-2-x-x-x-x---2-0-----------x-x-x-x-------------------------|
D|-----7---2-2-2-2-2-x-x-x-x-3-3-0-2-2-2-2-2-x-x-x-x-------------------------|
A|---------0-0-------x-x-x-x-3-3-0-3-3-3-3-3-x-x-x-x-2-----------------------|
E|-------------------x-x-x-x-1---------------x-x-x-x-3-----------------------|

e|-----0-0-0-----------------------------------3-----------------------------|
B|-----1-1-1-x-x-x-x---1-------1-1-1-----------3-----------------------------|
G|-2-2-2-2-2-x-x-x-x---2-0-----------x-x-x-x---------------------------------|
D|-2-2-2-2-2-x-x-x-x-3-3-0-2-2-2-2-2-x-x-x-x---------------------------------|
A|-0-0-------x-x-x-x-3-3-0-3-3-3-3-3-x-x-x-x-2-------------------------------|
E|-----------x-x-x-x-1---------------x-x-x-x-3-------------------------------|

e|---------------------------------------------------------------------------|
B|---------------------------------------------------------------------------|
G|-5-------------------------------------------------------------------------|
D|-5-3-7-5-3\5---------------------------------------------------------------|
A|-3-3-7-5-3\5---------------------------------------------------------------|
E|---1-5-3-1\3---------------------------------------------------------------|


Bridge:

e|---------------------------------------------------------------------------|
B|-10-10b---10-10b----------------------15-15-15-15-15-15-15-13-15-13--------|
G|--------9--------9-7b-5-7-5---5-7-7-5-------------------------------14-12--|
D|----------------------------7----------------------------------------------|
A|---------------------------------------------------------------------------|
E|---------------------------------------------------------------------------|

e|---------------------------------------------------------------------------|
B|-15-15-15-15-13-12---------------------------------------------------------|
G|-------------------14------------------------------------------------------|
D|---------------------------------------------------------------------------|
A|---------------------------------------------------------------------------|
E|---------------------------------------------------------------------------|


Chorus:

e|-------------0-0-0-----------------------------------3---------------------|
B|-------------1-1-1-x-x-x-x---1-------1-1-1-----------3---------------------|
G|-5-4-----2-2-2-2-2-x-x-x-x---2-0-----------x-x-x-x-------------------------|
D|-----7---2-2-2-2-2-x-x-x-x-3-3-0-2-2-2-2-2-x-x-x-x-------------------------|
A|---------0-0-------x-x-x-x-3-3-0-3-3-3-3-3-x-x-x-x-2-----------------------|
E|-------------------x-x-x-x-1---------------x-x-x-x-3-----------------------|

e|-----0-0-0-----------------------------------3-----------------------------|
B|-----1-1-1-x-x-x-x---1-------1-1-1-----------3-----------------------------|
G|-2-2-2-2-2-x-x-x-x---2-0-----------x-x-x-x---------------------------------|
D|-2-2-2-2-2-x-x-x-x-3-3-0-2-2-2-2-2-x-x-x-x---------------------------------|
A|-0-0-------x-x-x-x-3-3-0-3-3-3-3-3-x-x-x-x-2-------------------------------|
E|-----------x-x-x-x-1---------------x-x-x-x-3-------------------------------|


Outro:

e|-------------0-0-0-----------------------------------3---------------------|
B|-------------1-1-1-x-x-x-x---1-------1-1-1-----------3---------------------|
G|-5-4-----2-2-2-2-2-x-x-x-x---2-0-----------x-x-x-x-------------------------|
D|-----7---2-2-2-2-2-x-x-x-x-3-3-0-2-2-2-2-2-x-x-x-x-------------------------|
A|---------0-0-------x-x-x-x-3-3-0-3-3-3-3-3-x-x-x-x-2-----------------------|
E|-------------------x-x-x-x-1---------------x-x-x-x-3-----------------------|

e|-----0-0-0-----------------------------------3-----------------------------|
B|-----1-1-1-x-x-x-x---1-------1-1-1-----------3-----------------------------|
G|-2-2-2-2-2-x-x-x-x---2-0-----------x-x-x-x---------------------------------|
D|-2-2-2-2-2-x-x-x-x-3-3-0-2-2-2-2-2-x-x-x-x---------------------------------|
A|-0-0-------x-x-x-x-3-3-0-3-3-3-3-3-x-x-x-x-2-------------------------------|
E|-----------x-x-x-x-1---------------x-x-x-x-3-------------------------------|


************************************

| x  Dead note
| /  Slide up
| ~  Vibrato
| h  Hammer-on
| p  Pull-off
| \  Slide down
| b  Bend

************************************

Other versions of Two Story Town

Two story townChords

Almost there ...

Sign in to get your own page with links to favourite songs and more. You are just one click away...

Login with Facebook Login with Google