Log in

One click and you are in

Login with Facebook Login with Google

Why sign up and log in

Guitar Tabs Explorer
Bon Jovi guitar tabs for Only lonely

Guitar tabs

Tuning: Standard (E A D G B E)


Intro:

e|---------------------------------------------------------------------------|
B|---------------------------------------------------------------------------|
G|--------------6-5----------5-----------------------------------------------|
D|-10-10-10\6-6---5-6-8-8----5-6-8-8-----------------------------------------|
A|----------4-4---3-6-8-8----3-6-8-8-----------------------------------------|
E|------------------4-6-6------4-6-6-----------------------------------------|

Verse 1:

e|---------------------------------------------------------------------------|
B|---------------------------------------------------------------------------|
G|-5~------------------------------------------------------------------------|
D|-5~------------------------------------------------------------------------|
A|-3~------------------------------------------------------------------------|
E|---------------------------------------------------------------------------|

e|---------------------------------------------------------------------------|
B|---------------------------------------------------------------------------|
G|-5---------------5---------------5-5-------------5---------------5---------|
D|-5---------------5---------------5-5-------------5---------------5---------|
A|-3-3-3-3-3-3-3-3-3-3-3-3-3-3-3-3-3-3-3-3-3-3-3-3-3-3-3-3-3-3-3-3-3---------|
E|---------------------------------------------------------------------------|

e|---------------------------------------------------------------------------|
B|---------------------------------------------------------------------------|
G|---------------------------------------------------------------------------|
D|-6---------------6-------------6-8---------------8-------------8-8---------|
A|-6---------------6-------------6-8---------------8-------------8-8---------|
E|-4-4-4-4-4-4-4-4-4-4-4-4-4-4-4-4-6-6-6-6-6-6-6-6-6-6-6-6-6-6-6-6-6---------|


pre-Chorus:

e|---------------------------------------------------------------------------|
B|---------------------------------------------------------------------------|
G|---------------------------------------------------------------------------|
D|-3-5-3-3-3-3-3-3-3-3-5/6-------------6-----8---------------8---------------|
A|-3-5-3-3-3-3-3-3-3-3-5/6---------------6---8-----------------8-------------|
E|-1-3-1-1-1-1-1-1-1-1-3/4-4-4-4-4-4-4-----4-6-6-6-6-6-6-6-6-----6-----------|


Chorus:

e|---------------------------------------------------------------------------|
B|---------------------------------------------------------------------------|
G|-5~--------5--------5------------------------------------------------------|
D|-5~-6-8-8~-5-6-8-8~-5-6-8-8~-----------------------------------------------|
A|-3~-6-8-8~-3-6-8-8~-3-6-8-8~-----------------------------------------------|
E|----4-6-6~---4-6-6~---4-6-6~-----------------------------------------------|


Verse 2:

e|---------------------------------------------------------------------------|
B|---------------------------------------------------------------------------|
G|-5---------------5-5---------------5-5-------------5-5---------------5-5---|
D|-5---------------5-5---------------5-5-------------5-5---------------5-5---|
A|-3-3-3-3-3-3-3-3-3-3-3-3-3-3-3-3-3-3-3-3-3-3-3-3-3-3-3-3-3-3-3-3-3-3-3-3---|
E|---------------------------------------------------------------------------|

e|---------------------------------------------------------------------------|
B|---------------------------------------------------------------------------|
G|---------------------------------------------------------------------------|
D|-6---------------6-6-------------6-8---------------8-8---------------8-8---|
A|-6---------------6-6-------------6-8---------------8-8---------------8-8---|
E|-4-4-4-4-4-4-4-4-4-4-4-4-4-4-4-4-4-4-6-6-6-6-6-6-6-6-6-6-6-6-6-6-6-6-6-6---|


pre-Chorus:

e|---------------------------------------------------------------------------|
B|---------------------------------------------------------------------------|
G|---------------------------------------------------------------------------|
D|-3-5-3-3-3-3-3-3-3-3-5/6-------------6-----8---------------8---------------|
A|-3-5-3-3-3-3-3-3-3-3-5/6---------------6---8-----------------8-------------|
E|-1-3-1-1-1-1-1-1-1-1-3/4-4-4-4-4-4-4-4-6-4-6-6-6-6-6-6-6-6-----6-----------|


Chorus:

e|---------------------------------------------------------------------------|
B|---------------------------------------------------------------------------|
G|-5~--------5--------5------------------------------------------------------|
D|-5~-6-8-8~-5-6-8-8~-5-6-8-8~-----------------------------------------------|
A|-3~-6-8-8~-3-6-8-8~-3-6-8-8~-----------------------------------------------|
E|----4-6-6~---4-6-6~---4-6-6~-----------------------------------------------|


Bridge:

e|-8-8-8-8-8-8-8-8-8-8-8-8-8-8-8-8-8-8-8-8-8-8-8-8-8-8-8-8-8-8-8-8-8-8-8-8-8-|
B|-8-8-8-8-8-8-8-8-8-8-8-8-8-8-8-8-8-8-8-8-8-8-8-8-8-8-8-8-8-8-8-8-8-8-8-8-8-|
G|---------------------------------------------------------------------------|
D|---------------------------------------------------------------------------|
A|---------------------------------------------------------------------------|
E|---------------------------------------------------------------------------|


solo:

e|---11-8-10-8-11-8-13-8-11-8-10-8-11-8-10-8-11-8-13-8-11-8-10-8-------------|
B|-8-----8----8----8----8----8---------8----8----8----8----8-----------------|
G|---------------------------------------------------------------------------|
D|---------------------------------------------------------------------------|
A|---------------------------------------------------------------------------|
E|---------------------------------------------------------------------------|

e|---11-8-10-8-11-8-13-8-11-8-10-8-11-8-10-8-11-8-13-8-11-8-10-8-11~---------|
B|-8-----8----8----8----8----8---------8----8----8----8----8-----------------|
G|---------------------------------------------------------------------------|
D|---------------------------------------------------------------------------|
A|---------------------------------------------------------------------------|
E|---------------------------------------------------------------------------|


Chorus:

e|---------------------------------------------------------------------------|
B|---------------------------------------------------------------------------|
G|-5~--------5--------5------------------------------------------------------|
D|-5~-6-8-8~-5-6-8-8~-5-6-8-8~-----------------------------------------------|
A|-3~-6-8-8~-3-6-8-8~-3-6-8-8~-----------------------------------------------|
E|----4-6-6~---4-6-6~---4-6-6~-----------------------------------------------|


Outro:

e|---11-8-10-8-11-8-13-8-11-8-10-8-11-8-10-8-11-8-13-8-11-8-10-8-------------|
B|-8-----8----8----8----8----8---------8----8----8----8----8-----------------|
G|---------------------------------------------------------------------------|
D|---------------------------------------------------------------------------|
A|---------------------------------------------------------------------------|
E|---------------------------------------------------------------------------|

e|---11-8-10-8-11-8-13-8-11-8-10-8-11-8-10-8-11-8-13-8-11-8-10-8-11~---------|
B|-8-----8----8----8----8----8---------8----8----8----8----8-----------------|
G|---------------------------------------------------------------------------|
D|---------------------------------------------------------------------------|
A|---------------------------------------------------------------------------|
E|---------------------------------------------------------------------------|


************************************

| \  Slide down
| ~  Vibrato
| /  Slide up

************************************

Almost there ...

Sign in to get your own page with links to favourite songs and more. You are just one click away...

Login with Facebook Login with Google