Log in

One click and you are in

Login with Facebook Login with Google

Why sign up and log in

Guitar Tabs Explorer
Bomb The Music Industry bass tabs for Save the war

Save The War bass tab by Bomb The Music Industry

Bomb The Music Industry bass tabs for Save the war

Bass tabs

Tuning: Standard (E A D G)

We need to save the war for something worth our lives...
G|----------------------------------------------------------------------------------|
D|----------------------------------------------------------------------------------|
A|---------------10-10-10-8-7---------------------------------------------10-8-7----|
E|-3-3-3-3-8-8-8--------------0-0-0-0-1-1-1-1-5-5-5-5-4-4-4-4-4-4-8-8-8-8--------10-|

We need to keep the war reserved for something big...
G|------------------------------------------------------------------------------|
D|------------------------------------------------------------------------------|
A|---------10-10-8-7------------------------------------------------10-10-10-10-|
E|-8-8-8-8-----------0-0-0-0-1-1-1-1-5-5-5-5-4-4-4-16-16-16-8-8-8-8-------------|

How do you find you'll prevent suicide...
G|----------------------------------------------------------------------------|
D|-------------------12-------------------------------------------------------|
A|-12-12-12-12-10-10----10-----8---------8----8-8-8-8-7-7-7-7-----------------|
E|-------------------------8-8---8-10-10---10-----------------5-5-5-5-5-5-5-5-|

One love, one people...
G|-14-14-14-14-13-13-13-13------------------------------------14-14-14-14-12-12-12-12-|
D|------------------------------------------------------------------------------------|
A|---------------------------------------8----8-8-8-8-7-7-7-7-------------------------|
E|-------------------------8-8-8-8-10-10---10-----------------------------------------|

We need to save the war for something worth our lives...
G|----------------------------------------------------------------------------|
D|----------------------------------------------------------------------------|
A|---------10-10-8-7------------------------------------------------10-8-7----|
E|-8-8-8-8-----------0-0-0-0-1-1-1-1-5-5-5-5-4-4-4-16-16-16-8-8-8-8--------10-|

We need to keep the war reserved for something big...
G|------------------------------------------------------------------------------|
D|------------------------------------------------------------------------------|
A|---------10-10-8-7------------------------------------------------10-10-10-10-|
E|-8-8-8-8-----------0-0-0-0-1-1-1-1-5-5-5-5-4-4-4-16-16-16-8-8-8-8-------------|

We cannot stand for this...
G|---------------------------------------------------------------------------------------------------------|
D|-----------------------------------------------------------------------------------------7-7-7-7---------|
A|-7-7-7-7-7-7-7-7-7-7-7-7-7-5-4-----------11-11-11-11---------------------8-8-8-8-7-7-7-7---------7-7-7-7-|
E|-------------------------------7-5-5-5-5-------------8-8-8-8-10-10-10-10---------------------------------|

G|------------------------------------------------------------------------------------|
D|-------------------------------------------------------------7-7-7-7----------------|
A|-12-12-12-12-11-11-11-11---------------------8-8-8-8-7-7-7-7---------10-10-10-10-8\-|
E|-------------------------8-8-8-8-10-10-10-10----------------------------------------|

Like commisions acts...
G|----------------------------------|
D|----------------------------------|
A|-8--8-9--9--10-10-10-10-10-8-7----|
E|-------------------------------10-|

We need to keep the war reserved for something big...
G|-------------------------------------------------------------------------------|
D|----------------------------10-------------------------------------------------|
A|----------10-------------12----10-12----12----12--12-11--11----------10-8-7----|
E|-8-8-8-12----12-10-12-12-------------13----13----------------8-8-8-8--------10-|

We need to save the war!!!
G|---------------------------------------------------------------------------|
D|---------------------------------------------------------------------------|
A|-----------------7-7-7-7-8-8-8-8-12-12-12-12-11-11-11-11---------10-8-7----|
E|-8-8-8-8-8-8-8-8-----------------------------------------8-8-8-8--------10-|

G|-----------------------------------------------------------------------------|
D|-----------------------------------------------------------------------------|
A|---------10-8-7----7-7-7-7-8-8-8-8-12-12-12-12-11-11-11-11---------10-8-7----|
E|-8-8-8-8--------10-----------------------------------------8-8-8-8--------10-|

Holy fuck!!!
G|---------------------------------------------------------------------------------------------|
D|---------------------------------------------------------------------------------------------|
A|-12-12-12-12-11-11------------7---------9----------------------------12-12-12-12-------------|
E|-------------------12-10-8-10---8-10-12---10-13-13-13-13-12-12-12-12-------------12-12-12-12-|

G|----------------------------------------------------------------------------------------------------------|
D|----------------------------------------------------------------------------------------------------------|
A|-12-12-12-12-11-11------------7---------9-----------------------------------------------------------------|
E|-------------------12-10-8-10---8-10-12---10-13-13-13-13-12-12-12---555555555555555555555555555555555555\-|

Oh God! Oh God! Oh No!!!


************************************

| \ Slide down

************************************

ⓘ Bass guitar tab for 'Save The War' by, a female blues artist from Tennessee, United States. was born in 1957.

Almost there ...

Sign in to get your own page with links to favourite songs and more. You are just one click away...

Login with Facebook Login with Google