Log in

One click and you are in

Login with Facebook Login with Google

Why sign up and log in

Guitar Tabs Explorer
Bomb The Music Industry! bass tabs for Planning my death

Planning My Death bass tab - Bomb The Music Industry!

Bomb The Music Industry! bass tabs for Planning my death

Bass tabs

Tuning: Standard (E A D G)

Go!!!
G|---------------------|
D|---------------------|
A|---------------------|
E|-3-3-3-3/15-15-15-15-|
G|-------------------------------------------------------------|
D|-------------------------------------------------------------|
A|---2-5-2-3-2-3-5-3-2-------2-5-2-3-2-3-5---2-5-5-5-5-5---5---|
E|-3-------------------5-3-3---------------3-------------5---5-|

G|---------------------------------------------------|
D|------9----7---7---5---5---------------------------|
A|-7-10---10---7---7---5---5-3-2---------7---5-------|
E|-------------------------------5-3-5-8---8---8-7-5-|

I've been planning my death...
G|-----------------------------------------------------------------|
D|-----------------------------------------------------------------|
A|-----------------3-2-------------3-2-------------5-5-5-5-5---6---|
E|-3-3-3-3-3-3-3-3-----5-2-3-3-3-3-----5-2-3-3-3-3-----------5---5-|

G|-----------------------------8-8-------------------------------------|
D|------9----7---7---5---5---9-----9-10-10-9-9-7-7-5-5-----------------|
A|-7-10---10---7---7---5---5---------------------------3-3-2-2-5-5-5-5-|
E|---------------------------------------------------------------------|

I'm disappearing...
G|-----------------------------------------------------------------|
D|-5-5---------9-9-7-7-5-5-4-4-------------------------------------|
A|-----6-6-7-7-----------------7-7-3-3-3-3-5-5-5-5-----------------|
E|-------------------------------------------------3-3-3-3-3-3-3-3-|

I'm running to the undertow...
G|---------------------------------------------------------------------------------|
D|---------------------------------------------------------------------7-7-----7-7-|
A|-7-7-----6-6---------2-2---------3-3-3-3-3-3-3-3-5-5-5-5-5-5-5-5-6-6-----6-6-----|
E|-----7-7-----5-5-3-3-----5-5-3-3-------------------------------------------------|

HORN SOLO
G|------------------------9-7------------------------------------9-7-------------|
D|----------------------------10-9-7---------------------------------10-9-7------|
A|-7---7-9-10----10----10------------10-6-7---7-9-10----10----10------------10-6-|
E|---7--------10----10----------------------7--------10----10--------------------|

G|------------------------------------------------------------------|
D|-----------------------------------------------------------9-7----|
A|---------6-6-6-6-7-7-7-7-7-7-7-7---------6-6---6-7-7-7-7-------10-|
E|-3-3-3-3-------------------------3-3-3-3-----7-----------8--------|

G|--------------------------------------------------------------------|
D|-------------9-7------5---5---9-7----------------9-7------5---5-----|
A|-7-10-7-10-7-----10-6---6---6-----10-7-10-7-10-7-----10-6---6---6/\-|
E|--------------------------------------------------------------------|

G|-----------------------------------------------------------------|
D|-----------------------------------------------------------------|
A|---------6-6---6-7-7-7-7-7-7-7-7---------6-6---6-7-7-7-7---------|
E|-3-3-3-3-----7-------------------3-3-3-3-----7-----------8-8-8-8-|

So kill me, Sarah...
G|-------------------------------------------------------------------------------------|
D|-------------------------------------------------------------------------------------|
A|-3-3-3-3-5-5-5-5---------------------7-7-----6-6---------2-2---------3-3-3-3-5-5-5-5-|
E|-----------------3-3-3-3/15-15-15-15-----7-7-----5-5-3-3-----5-5-3-3-----------------|

The lonely, depressing...
G|-----------------------------------------------------------|
D|-----------------------------------------------------------|
A|-7-7-7-7-----------------5-5-5-5-7-7-7-7---------5-3-2-----|
E|---------7-7-7-7-8-8-8-8-----------------7-7-7-7-------5-3-|


************************************

| / Slide up

************************************

Almost there ...

Sign in to get your own page with links to favourite songs and more. You are just one click away...

Login with Facebook Login with Google