Log in

One click and you are in

Login with Facebook Login with Google

Why sign up and log in

Guitar Tabs Explorer
The Bodines bass tabs for Therese

Bass tabs

Intro:
G|----------------|---------------|---------------|---5------------|
D|--8--6-8--6-8-6-|-8--6-8--6-6-6-|-8--6-8--6-8-6-|-8---8-6--8-8-8-|
A|----------------|---------------|---------------|----------------|
E|----------------|---------------|---------------|----------------|

G|--------------|-----------------|--------------|-----------------|
D|---------6----|-------------6---|---------6----|-------------6---|
A|-6--6-8-----6-|-8-6-8-6-8-8---8-|-6--6-8-----6-|-8-6-8-6-8-8---8-|
E|--------------|-----------------|--------------|-----------------|
Verse 1: (x2)
G|---------------|---------------|---------------|---5------------|
D|-8--6-8--6-8-6-|-8--6-8--6-6-6-|-8--6-8--6-8-6-|-8---8-6--8-8-8-|
A|---------------|---------------|---------------|----------------|
E|---------------|---------------|---------------|----------------|

G|--------------|-----------------|--------------|-----------------|
D|---------6----|-------------6---|---------6----|-------------6---|
A|-6--6-8-----6-|-8-6-8-6-8-8---8-|-6--6-8-----6-|-8-6-8-6-8-8---8-|
E|--------------|-----------------|--------------|-----------------|


Chorus:
G|--------------|-------------|-6-5--------|---------------|
D|--------------|-------------|------6--3--|-------3--3-6--|
A|--------------|-------------|------------|--6--6---------|
E|-9---8--8-8-8-|-9---8--8-8--|------------|---------------|

G|----------------|---------------|---------------|---------------|
D|----------------|---------------|---------------|---------------|
A|----------------|---------------|---------------|---------------|
E|--4--4-6--4-6-4-|-4--4-6--4-6-4-|-4--4-6--4-6-4-|-4--4-6--4-6-4-|

G|--------------|-------------|-6-5--------|---------------|
D|--------------|-------------|------6--3--|-------3--3-6--|
A|-4---3--3-3-3-|-4---3--3-3--|------------|--6--6---------|
E|--------------|-------------|------------|---------------|

G|----------------|---------------|---------------|---------------|
D|----------------|---------------|---------------|---------------|
A|----------------|---------------|---------------|---------------|
E|--4--4-6--4-6-4-|-4--4-6--4-6-4-|-4--4-6--4-6-4-|-4--4-6--4-6-4-|

Verse 2:
G|---------------|---------------|---------------|---5------------|
D|-8--6-8--6-8-6-|-8--6-8--6-6-6-|-8--6-8--6-8-6-|-8---8-6--8-8-8-|
A|---------------|---------------|---------------|----------------|
E|---------------|---------------|---------------|----------------|

G|--------------|-----------------|--------------|-----------------|
D|---------6----|-------------6---|---------6----|-----------------|
A|-6--6-8-----6-|-8-6-8-6-8-8---8-|-6--6-8-----6-|-8-6-8-6-8-8-8-8-|
E|--------------|-----------------|--------------|-----------------|

G|---------------|---------------|---------------|---5------------|
D|-8--6-8--6-8-6-|-8--6-8--6-6-6-|-8--6-8--6-8-6-|-8---8-6--8-8-8-|
A|---------------|---------------|---------------|----------------|
E|---------------|---------------|---------------|----------------|

G|--------------|-----------------|--------------|-----------------|
D|---------6----|-------------6---|---------6----|-------------6---|
A|-6--6-8-----6-|-8-6-8-6-8-8---8-|-6--6-8-----6-|-8-6-8-6-8-8---8-|
E|--------------|-----------------|--------------|-----------------|


Chorus:
G|--------------|-------------|-6-5--------|---------------|
D|--------------|-------------|------6--3--|-------3--3-6--|
A|--------------|-------------|------------|--6--6---------|
E|-9---8--8-8-8-|-9---8--8-8--|------------|---------------|

G|----------------|---------------|---------------|---------------|
D|----------------|---------------|---------------|---------------|
A|----------------|---------------|---------------|---------------|
E|--4--4-6--4-6-4-|-4--4-6--4-6-4-|-4--4-6--4-6-4-|-4--4-6--4-6-4-|

G|--------------|-------------|-6-5--------|---------------|
D|--------------|-------------|------6--3--|-------3--3-6--|
A|-4---3--3-3-3-|-4---3--3-3--|------------|--6--6---------|
E|--------------|-------------|------------|---------------|

G|----------------|---------------|---------------|---------------|
D|----------------|---------------|---------------|---------------|
A|----------------|---------------|---------------|---------------|
E|--4--4-6--4-6-4-|-4--4-6--4-6-4-|-4--4-6--4-6-4-|-4--4-6--4-6-4-|


Bridge:
G|----------------|----------------|----------------|----------------|
D|----------------|----------------|----------------|----------------|
A|----------------|----------------|----------------|----------------|
E|----------------|----------------|----------------|----------------|

G|--------------|-----------------|--------------|-----------------|
D|---------6----|-------------6---|---------6----|-------------6---|
A|-6--6-8-----6-|-8-6-8-6-8-8---8-|-6--6-8-----6-|-8-6-8-6-8-8---8-|
E|--------------|-----------------|--------------|-----------------|

Interlude:
G|---------------|---------------|---------------|---5------------|
D|-8--6-8--6-8-6-|-8--6-8--6-6-6-|-8--6-8--6-8-6-|-8---8-6--8-8-8-|
A|---------------|---------------|---------------|----------------|
E|---------------|---------------|---------------|----------------|

G|--------------|-----------------|--------------|-----------------|
D|---------6----|-------------6---|---------6----|-------------6---|
A|-6--6-8-----6-|-8-6-8-6-8-8---8-|-6--6-8-----6-|-8-6-8-6-8-8---8-|
E|--------------|-----------------|--------------|-----------------|


Chorus:
G|--------------|-------------|-6-5--------|---------------|
D|--------------|-------------|------6--3--|-------3--3-6--|
A|--------------|-------------|------------|--6--6---------|
E|-9---8--8-8-8-|-9---8--8-8--|------------|---------------|

G|----------------|---------------|---------------|---------------|
D|----------------|---------------|---------------|---------------|
A|----------------|---------------|---------------|---------------|
E|--4--4-6--4-6-4-|-4--4-6--4-6-4-|-4--4-6--4-6-4-|-4--4-6--4-6-4-|

G|--------------|-------------|-6-5--------|---------------|
D|--------------|-------------|------6--3--|-------3--3-6--|----------|
A|-4---3--3-3-3-|-4---3--3-3--|------------|--6--6---------|     |
E|--------------|-------------|------------|---------------|     |
                                   | (x3)
G|----------------|---------------|---------------|---------------|  |
D|----------------|---------------|---------------|---------------|  |
A|----------------|---------------|---------------|---------------|---|
E|--4--4-6--4-6-4-|-4--4-6--4-6-4-|-4--4-6--4-6-4-|-4--4-6--4-6-4-|


Outro:
G|--------------|-------------|-6-5--------|------------------|
D|--------------|-------------|------6--3--|-------3--3-6-----|
A|-4---3--3-3-3-|-4---3--3-3--|------------|--6--6------------|

Almost there ...

Sign in to get your own page with links to favourite songs and more. You are just one click away...

Login with Facebook Login with Google