Log in

One click and you are in

Login with Facebook Login with Google

Why sign up and log in

Guitar Tabs Explorer
Bob Seger And The Silver Bullet Band bass tabs for Old time rock and roll

Old Time Rock And Roll bass tab - Bob Seger And The Silver Bullet Band

Bob Seger And The Silver Bullet Band bass tabs for Old time rock and roll

Bass tabs

  • Difficulty: Beginner
Tuning: Standard (E A D G)


🎸 Intro: (Keyboard Start – No Bass)

🎸 Verse 1:
G|------------------------------------------------------------------------|
D|------------------------------------------------------------------------|
A|------------------------2--2--2--2--2--2--2--2---4--4--4--4--4--4--4--4-|
E|-2--2--2--2--2--2--2--2-------------------------------------------------|

G|----------------------------------------------------------------------|
D|-4--4--4--4--4--4--4--4-----------------------------------------------|
A|-----------------------------------------------2--2--2--2--2--2--2--2-|
E|------------------------2--2--2--2--2--2--2--2------------------------|

G|----------------------------------------------|
D|------------------------4--4--4--4------------|
A|-4--4--4--4--4--4--4--4------------4--4--4--4-|
E|----------------------------------------------|

🎸 Chorus:
G|----------------------------------------------------------------------|
D|----------------------------------------------------------------------|
A|---------------------0-1-2--2--2--2--2--2--2--3---4--4--4--4--4--4--4-|
E|-2--2--2--2--2--2--2--------------------------------------------------|

G|-----------------------|
D|-4--4--4--4------------|
A|------------4--4--4--4-|
E|-----------------------|

Guitar 🎸 Solo:
G|-----------------------------------------------------------------------|
D|-----------------------------------------------------------------------|
A|---------------------0-1-2--2--2--2--2--2--2-1-2-3-4--4--4--4--4--4--4-|
E|-2--2--2--2--2--2--2---------------------------------------------------|

G|---------------------------|
D|-1-3-4--4--4--4------------|
A|----------------4--4--4--4-|
E|---------------------------|

🎸 Verse 2:
G|------------------------------------------------------------------------|
D|------------------------------------------------------------------------|
A|------------------------2--2--2--2--2--2--2--2---4--4--4--4--4--4--4--4-|
E|-2--2--2--2--2--2--2--2-------------------------------------------------|

G|----------------------------------------------------------------------|
D|-4--4--4--4--4--4--4--4-----------------------------------------------|
A|-----------------------------------------------2--2--2--2--2--2--2--2-|
E|------------------------2--2--2--2--2--2--2--2------------------------|

G|----------------------------------------------|
D|------------------------4--4--4--4------------|
A|-4--4--4--4--4--4--4--4------------4--4--4--4-|
E|----------------------------------------------|

🎸 Chorus:
G|-----------------------------------------------------------------------|
D|-----------------------------------------------------------------------|
A|---------------------0-1-2--2--2--2--2--2--2-1-2-3-4--4--4--4--4--4--4-|
E|-2--2--2--2--2--2--2---------------------------------------------------|

G|---------------------------|
D|-1-3-4--4--4--4------------|
A|----------------4--4--4--4-|
E|---------------------------|

Sax 🎸 Solo:
G|-----------------------------------------------------------------------|
D|-----------------------------------------------------------------------|
A|---------------------0-1-2--2--2--2--2--2--2-1-2-3-4--4--4--4--4--4--4-|
E|-2--2--2--2--2--2--2---------------------------------------------------|

G|---------------------------|
D|-1-3-4--4--4--4------------|
A|----------------4--4--4--4-|
E|---------------------------|

🎸 Verse 3:
G|------------------------------------------------------------------------|
D|------------------------------------------------------------------------|
A|------------------------2--2--2--2--2--2--2--2---4--4--4--4--4--4--4--4-|
E|-2--2--2--2--2--2--2--2-------------------------------------------------|

             (Break Vocals/Drums Only)
G|----------------------------------------------------------------------|
D|-4--4--4--4--4--4--4--4---------------------------NO BASS-------------|
A|----------------------------------------------------------------------|
E|----------------------------------------------------------------------|

G|-----------------------------------------------|
D|----------------NO BASS--------------------1-3-|
A|-----------------------------------4--4--4-----|
E|-----------------------------------------------|

🎸 Outro:  (Repeat Outro To Fade/End)
G|-----------------------------------------------------------------------|
D|-4--4--4--4--4--4--4-3-4-----------------------------------------------|
A|-------------------------2--2--2--2--2--2--2-1-2-3-4--4--4--4--4--4--4-|
E|-----------------------------------------------------------------------|

G|---------------------------|
D|-1-3-4--4--4--4------------|
A|----------------4--4--4--4-|
E|---------------------------|

Almost there ...

Sign in to get your own page with links to favourite songs and more. You are just one click away...

Login with Facebook Login with Google