Log in

One click and you are in

Login with Facebook Login with Google

Why sign up and log in

Guitar Tabs Explorer
BoA tabs for Drinking

Guitar tabs with lyrics

TO:  www.guitartabs.cc

SUBJECT:  "Drinking", music by BOA.


Intro

e--|2--2-2-2-2-0h2-2-2-2-0-|2--2-2-2-2-0h2-2-2-2-0-|
B--|3--3-3-3-3-3---3-3-3-3-|3--3-3-3-3-3---3-3-3-3-|
G--|4--4-4-4-4-4---4-4-4-4-|0--0-0-0-0-0---0-0-0-0-|
D--|0--0-0-0-0-0---0-0-0-0-|0--0-0-0-0-0---0-0-0-0-|
A--|-----------------------|-----------------------|
E--|-----------------------|-----------------------|

e--|2--2-2-2-2-0h2-2-2-2-2-|2--2-2-2-2-0h2-2-2-2-0-|
B--|3--3-3-3-3-3---3-3-3-3-|3--3-3-3-3-3---3-3-3-3-|
G--|2--2-2-2-2-2---2-2-2-2-|2--2-2-2-2-2---2-2-2-2-|
D--|0--0-0-0-0-0---0-0-0-0-|0--0-0-0-0-0---0-0-0-0-|
A--|-----------------------|-----------------------|
E--|-----------------------|-----------------------|

e--|2--2-2-2-2-0h2-2-2-2-0-|2--2-2-2-2-0h2-2-2-2-0-|
B--|3--3-3-3-3-3---3-3-3-3-|3--3-3-3-3-3---3-3-3-3-|
G--|4--4-4-4-4-4---4-4-4-4-|0--0-0-0-0-0---0-0-0-0-|
D--|0--0-0-0-0-0---0-0-0-0-|0--0-0-0-0-0---0-0-0-0-|
A--|-----------------------|-----------------------|
E--|-----------------------|-----------------------|

e--|2--2-2-2-2-3---2---0---2---|
B--|3--3-3-3-3-3---3---3---3---|
G--|2--2-2-2-2-2---2---2---2---|
D--|0--0-0-0-0-0---0---0---0---|
A--|---------------------------|
E--|---------------------------|

Verse (play this four times)

e--|2--2-2-2-2-0h2-2-2-2-0-|2--2-2-2-2-0h2-2-2-2-0-|
B--|3--3-3-3-3-3---3-3-3-3-|3--3-3-3-3-3---3-3-3-3-|
G--|4--4-4-4-4-4---4-4-4-4-|0--0-0-0-0-0---0-0-0-0-|
D--|0--0-0-0-0-0---0-0-0-0-|0--0-0-0-0-0---0-0-0-0-|
A--|-----------------------|-----------------------|
E--|-----------------------|-----------------------|

e--|2--2-2-2-2-0h2-2-2-2-2-|2--2-2-2-2-0h2-2-2-2-0-|
B--|3--3-3-3-3-3---3-3-3-3-|3--3-3-3-3-3---3-3-3-3-|
G--|2--2-2-2-2-2---2-2-2-2-|2--2-2-2-2-2---2-2-2-2-|
D--|0--0-0-0-0-0---0-0-0-0-|0--0-0-0-0-0---0-0-0-0-|
A--|-----------------------|-----------------------|
E--|-----------------------|-----------------------|

On the last measure of verse 1, another guitar comes in:

e--|2-----2-----3p2-----3p2-----|
B--|--3-----3-------3-------3---|
G--|----2-----2-------2-------2-|
D--|----------------------------|
A--|----------------------------|
E--|----------------------------|


Chorus

e--|0--0-0-0-0-0--0-0-0-0-|3--3-3-3-3-3--3-3-3-3-|
B--|0--0-0-0-0-0--0-0-0-0-|0--0-0-0-0-0--0-0-0-0-|
G--|1--1-1-1-1-1--1-1-1-1-|0--0-0-0-0-0--0-0-0-0-|
D--|2--2-2-2-2-2--2-2-2-2-|0--0-0-0-0-0--0-0-0-0-|
A--|2--2-2-2-2-2--2-2-2-2-|2--2-2-2-2-2--2-2-2-2-|
E--|0--0-0-0-0-0--0-0-0-0-|3--3-3-3-3-3--3-3-3-3-|

e--|2--2-2-2-2-2--2-2-2-2-|0h2-2-2-2-2-2--2-2-2-2-|
B--|3--3-3-3-3-3--3-3-3-3-|3---3-3-3-3-3--3-3-3-3-|
G--|2--2-2-2-2-2--2-2-2-2-|2---2-2-2-2-2--2-2-2-2-|
D--|0--0-0-0-0-0--0-0-0-0-|0---0-0-0-0-0--0-0-0-0-|
A--|----------------------|-----------------------|
E--|----------------------|-----------------------|

Play the chorus riff four times, except on the third time, substitute this for the last two measures:

e--|3--3-3-3-3-2--2-2-2-2-|0--0-0-0-0-2--2-2-2-2-|
B--|3--3-3-3-3-3--3-3-3-3-|3--3-3-3-3-3--3-3-3-3-|
G--|2--2-2-2-2-2--2-2-2-2-|2--2-2-2-2-2--2-2-2-2-|
D--|0--0-0-0-0-0--0-0-0-0-|0--0-0-0-0-0--0-0-0-0-|
A--|----------------------|----------------------|
E--|----------------------|----------------------|

Now, repeat the verse.  On the last two measures of verse 2, subsitute this:

e--|0--0-0-0-0-0--0-0-0-0-|0--0-0-0-0-0--0-0-0-0-|
B--|3--3-3-3-3-3--3-3-3-3-|2--2-2-2-2-2--2-2-2-2-|
G--|2--2-2-2-2-2--2-2-2-2-|2--2-2-2-2-2--2-2-2-2-|
D--|2--2-2-2-2-2--2-2-2-2-|2--2-2-2-2-2--2-2-2-2-|
A--|0--0-0-0-0-0--0-0-0-0-|0--0-0-0-0-0--0-0-0-0-|
E--|----------------------|----------------------|

And on to...


Bridge

e--|2--2-2-2-2-2--2-2-2-2-|3--3-3-3-3-3--3-3-3-3-|
B--|3--3-3-3-3-3--3-3-3-3-|0--0-0-0-0-0--0-0-0-0-|
G--|2--2-2-2-2-2--2-2-2-2-|0--0-0-0-0-0--0-0-0-0-|
D--|0--0-0-0-0-0--0-0-0-0-|0--0-0-0-0-0--0-0-0-0-|
A--|----------------------|2--2-2-2-2-2--2-2-2-2-|
E--|----------------------|3--3-3-3-3-3--3-3-3-3-|

e--|2--2-2-2-2-2--2-2-2-2-|2--2-2-2-2-2--2-2-2-2-|
B--|3--3-3-3-3-3--3-3-3-3-|3--3-3-3-3-3--3-3-3-3-|
G--|2--2-2-2-2-2--2-2-2-2-|4--4-4-4-4-4--4-4-4-4-|
D--|0--0-0-0-0-0--0-0-0-0-|4--4-4-4-4-4--4-4-4-4-|
A--|----------------------|2--2-2-2-2-2--2-2-2-2-|
E--|----------------------|----------------------|

e--|2--2-2-2-2-2--2-2-2-2-|3--3-3-3-3-3--3-3-3-3-|
B--|3--3-3-3-3-3--3-3-3-3-|0--0-0-0-0-0--0-0-0-0-|
G--|2--2-2-2-2-2--2-2-2-2-|0--0-0-0-0-0--0-0-0-0-|
D--|0--0-0-0-0-0--0-0-0-0-|0--0-0-0-0-0--0-0-0-0-|
A--|----------------------|2--2-2-2-2-2--2-2-2-2-|
E--|----------------------|3--3-3-3-3-3--3-3-3-3-|

e--|2-------0-------3-----|
B--|3-------2-------0-----|
G--|4-------2-------0-----|
D--|4-------2-------0-----|
A--|2-------0-------2-----|
E--|----------------3-----|

Return to verse, then play the chorus riff until the end...and that's it!  The electric guitar parts in

outro can be easily improvised based on the simple E-G-D chord pattern.
ⓘ Guitar tab for 'Drinking' by BoA, ubcf4아, a female pop artist from Guri, South Korea. BoA was born in 1986.

Almost there ...

Sign in to get your own page with links to favourite songs and more. You are just one click away...

Login with Facebook Login with Google