Log in

One click and you are in

Login with Facebook Login with Google

Why sign up and log in

Guitar Tabs Explorer
BoA bass tabs for Did ya

Bass tabs

bass tunning: eadg (standard)

please check out my cover of this song on youtube, this is all by ear. i couldnt find
any tabs for this song anywhere, so i decided to figure it out myself. i hope anyone who
has been trying to figure it out too finds this tab helpful.

key:
h=hammer on
\=slide up
/=slide down
intro: these are 10's not 1's and 0's (and 12's not 1's and 2's, and 11)

e:--101010109999-----------------| x2
a:--------------99-1212----1212--|
d:---------------------1111------|
g:-------------------------------|

after the second time you play this

e:-------------------------------|
a:-------------------------------|
d:--5555555555555\---------------|
g:-------------------------------|

now with the other part...

e:--9-9-9-9-10101010--7-7-7-7-5555-|x3
a:---------------------------------|
d:---------------------------------|
g:---------------------------------|

after the third time you play this

e:--999977775555\-10-10-10-10---|
a:------------------------------|
d:------------------------------|
g:------------------------------|

you repeat this whole process twice, you play this fun bassline (again, those are 11's and 12's)

e:-----------------------------------------------|
a:---9-9h129h129h12------------------------------|
d:----------------11-------999912121212----------|
g:------------------------------------11111111---|


e:---9-9h129h129h12------------------------------|
d:----------------11-----------------------------|
a:-------------------------999912121212----------|
g:------------------------------------11111111---|

e:-----------------------------------------------|
a:---9-9h129h129h12------------------------------|
d:----------------11-------999912121212----------|
g:------------------------------------11111111---|


e:---9-9h129h129h12--------------------------------|
d:----------------11-------------------------------|
a:-------------------------999912121212------------|
g:------------------------------------11111111-----|

e:--------------------------------|
a:--------------------------------|
d:--5555555555555\----------------|
g:--------------------------------|


outro:

e:--9-9-9-9-10101010--7-7-7-7-5555-| x3
a:---------------------------------|
d:---------------------------------|
g:---------------------------------|

e:--999977775555\-10-10-10-10---|
a:------------------------------|
d:------------------------------|
ⓘ Bass guitar tab for 'Did Ya' by BoA, ubcf4아, a female pop artist from Guri, South Korea. BoA was born in 1986.

Almost there ...

Sign in to get your own page with links to favourite songs and more. You are just one click away...

Login with Facebook Login with Google