Log in

One click and you are in

Login with Facebook Login with Google

Why sign up and log in

Guitar Tabs Explorer
Blur tabs for Woodpigeon song

Guitar tabs

Intro:
e/-----------------------------|
B/-----------------------------|
G/-11-11-11-11-11-11--9--9-----| x2
D/-10-10-10-10-10-10--10-10----|
A/-----------------------------|
E/-----------------------------|

This is what Graham plays during the verses:
A chord diagramC majorC
e/-----------------------------|
B/-----------------------------|
G/-11-11-11-11-11-11--9--9-----|
D/-10-10-10-10-10-10--10-10----|
A/-----------------------------|
E/-----------------------------|

A chord diagramC majorC
e/-----------------------------|
B/-----------------------------|
G/-11-11-11-11-11-11--9--9-----|
D/-10-10-10-10-10-10--10-10----|
A/-----------------------------|
E/-----------------------------|


A chord diagramG+G A chord diagramA augmentedA A chord diagramC majorC A chord diagramA augmentedA A chord diagramC majorC A chord diagramA augmentedA A chord diagramG+G

e/-----------8-8-8-8-8-8s5---8-8-8-8-8-8s5---8-8-8-8-8-8s3--|
B/-8s12------8-8-8-8-8-8s5---8-8-8-8-8-8s5---8-8-8-8-8-8s3--|
G/----------------------------------------------------------|
D/----------------------------------------------------------|
A/----------------------------------------------------------|
E/----------------------------------------------------------|

Verse 1:
A chord diagramC majorC
Disingenious intake
A chord diagramC majorC
Everybody make mistakes
A chord diagramG+G A chord diagramA augmentedA
Sometimes
A chord diagramC majorC A chord diagramA augmentedA
Woodpigeon
A chord diagramC majorC A chord diagramA augmentedA
In strip light
A chord diagramC majorC A chord diagramG+G
Does it every night


Verse 2:
A chord diagramC majorC
It's a feeling that's around
A chord diagramC majorC A chord diagramG+G A chord diagramA augmentedA
It's a feeling that's around
A chord diagramC majorC A chord diagramA augmentedA
Woodpigeon
A chord diagramC majorC A chord diagramA augmentedA
In strip light
A chord diagramC majorC A chord diagramG+G
Does it every night


Outro:
e/-----------------------------------------|
B/-0--0--0--0--0--0---0--0---0--0--0--0----|
G/-11-11-11-11-11-11--12-12--12-12-12-12---| x4
D/-10-10-10-10-10-10--10-10--10-10-10-10---|
A/-----------------------------------------|
E/-----------------------------------------|

e/------------------------------------------|
B/-0--0--0--0--0--0-------------------------|
G/-11-11-11-11-11-11--12-12-----------------|
D/-10-10-10-10-10-10--10-10--13-13-b13------|
A/------------------------------------------|
E/------------------------------------------|


************************************


| b  Bend
| s
Slide
ⓘ Guitar tab for 'Woodpigeon Song' by Blur, an alternative rock band formed in 1988 from London, England. Blur is known for their poignant britpop music.

Almost there ...

Sign in to get your own page with links to favourite songs and more. You are just one click away...

Login with Facebook Login with Google