Log in

One click and you are in

Login with Facebook Login with Google

Why sign up and log in

Guitar Tabs Explorer
Blur tabs for Tender

Guitar tabs

This is the most correct version I could have done for Tender.The other
version contained in the archive is really wrong.Now,sit down, play and
enjoy.

Album:13
Tabbed by:Ricardo Balderas(tlian_@excite.com)

? means full

(With chorus)
Intro:
e/------------------------0--------------------------------------------
B/---0-0h2-0----------0-2---0h2-------2-2h3p2---------------3-0-2—-----
G/-2---------2-2----2-----------2-3-2-------------1-2-1-2-1------------
D/--------------------------------------------2-2------------------2-1-
A/---------------------------------------------------------------------
E/---------------------------------------------------------------------

e/-----------------------0-----------------------0-0-----------
B/---0---0---------0-0h2---0h2-----2-2h3p2-----------0-0-------
G/-2---2-----2---2-------------2----------0h1-2------------1-2-
D/-----2-------------------------2-----------------------------
A/-------------0-----------------------------------------------
E/-------------------------------------------------------------

Acoustic guitar plays chords
   A chord diagramA augmentedA
e/-----------------------------
B/-----2h3-2------------2h3-2--
G/-2-2------------2--2---------
D/-----------0-0---------------
A/-----------------------------
E/-----------------------------

Riff 1
   A chord diagramA augmentedA                                 A chord diagramE MajorE               A chord diagramA augmentedA
e/-------------------------0------------------------------------
B/---0-0h2-0---------0-0h2---0h2---2-2-2h3p2-------3-0-2--------
G/-2---------2-----2-------------2-2---------0h1----------------
D/-------------2---------------------------------2--------2---2-
A/---------------0------------------------------------------0---
E/--------------------------------------------------------------

   A chord diagramA augmentedA                               A chord diagramE MajorE                   A chord diagramA augmentedA
e/-------------------------0-------------------------------------
B/---0-0h2-0---------0-0h2---0h2----2-2h3p2-----------3-3-2------
G/-2---------2-----2--------------2----------0h1--------------2—-
D/-------------2---------------------------------2-2-------------
A/---------------0-----------------------------------------------
E/---------------------------------------------------------------

Play 4X
e/-----------------------------
B/-----------------------------
G/-2b4 --2p0-------------------
D/----------------0h2p0--------
A/------------0h2--------2-0---
E/-----------------------------


Verse 1:
A chord diagramA augmentedA
Tender ...
A chord diagramG+G                 A chord diagramA augmentedA
Lying by ...
A chord diagramA augmentedA
Tender ...
A chord diagramG+G                     A chord diagramA augmentedA
Of someone ...
A chord diagramA augmentedA
Tender is ...
A chord diagramG+G                 A chord diagramA augmentedA
The demons ...
A chord diagramA augmentedA
Lord I ...
A chord diagramG+G                  A chord diagramA augmentedA
Someone ...


Chorus:
A chord diagramA augmentedA                          A chord diagramD MajorD   A chord diagramC majorC
Come on, come on, come on, g..
A chord diagramA augmentedA                          A chord diagramC# minorC#m        A chord diagramD MajorD
Come on, come on, come on, L...             (X2)
A chord diagramC# minorC#m  A chord diagramD MajorD
That we have
    A chord diagramC# minorC#m              A chord diagramD MajorD
I'm waiting f...
Waiting f...
    A chord diagramA augmentedA                A chord diagramG+G          A chord diagramA augmentedA
I'm waiting f...

W / Riff 1
      A chord diagramA augmentedA                 A chord diagramE MajorE     A chord diagramA augmentedA
Oh my baby, oh my baby, oh ...
      A chord diagramA augmentedA                 A chord diagramE MajorE     A chord diagramA augmentedA
Oh my baby, oh my baby, oh ...


Verse 2:(same as verse 1)


Chorus:

W / Chords
      A chord diagramA augmentedA                 A chord diagramE MajorE     A chord diagramA augmentedA
Oh my baby, oh my baby, oh ..
      A chord diagramA augmentedA                 A chord diagramE MajorE     A chord diagramA augmentedA
Oh my baby, oh my baby, oh ..

Guitar solo:
e/--------------------------------------5-3-0-2-3-2-0--------------------------
B/-2b4*--2-0-------------------------------------------3h2-2-------------------
G/-----------2-4-2-0-----------------------------------------2-----------------
D/------------------------0h2p0-------------------------------------0h2p0------
A/--------------------0h2-------2-0-----------------------------Oh2-------2-0--
E/-----------------------------------------------------------------------------


Chorus

      A chord diagramA augmentedA                 A chord diagramE MajorE     A chord diagramA augmentedA
Oh my baby, oh my baby, oh ..
      A chord diagramA augmentedA                 A chord diagramE MajorE     A chord diagramA augmentedA
Oh my baby, oh my baby, oh ..


Verse 3


Chorus

 A chord diagramA augmentedA A chord diagramE7E7 A chord diagramA augmentedA
Oh my baby, oh my baby, oh...
 A chord diagramA augmentedA A chord diagramE7E7 A chord diagramA augmentedA
Oh my baby, oh my baby, oh ...

Begin Fade playing this:

  A chord diagramA augmentedA
e/---------------------------------------------------
B/---------------------------------------------------
G/-6-6-6/5-6-6-6/5-6-6-6-7-6-6—-6/5-6-6-6/5-6-6-6-7—-
D/-7-7-6/6-7-7-7/6-7-7-7-7-7-7—-7/6-7-7-7/6-7-7-7-7—-
A/---------------------------------------------------
E/---------------------------------------------------
ⓘ Guitar tab for 'Tender' by Blur, an alternative rock band formed in 1988 from London, England. Blur is known for their poignant britpop music.

Almost there ...

Sign in to get your own page with links to favourite songs and more. You are just one click away...

Login with Facebook Login with Google