Log in

One click and you are in

Login with Facebook Login with Google

Why sign up and log in

Guitar Tabs Explorer
Blur bass tabs for Sing

Bass tabs with lyrics

Blur - Sing (Bass Guitar Tab)
          -------------------------------

 Intro

    Piano   |Em7, Em7, Em7, Em7| Em7, A6, A6, A6|
                            X 4
         |Bm, Bm, Bm, Bm,| Bm, Bm, Bm, Bm |
 (Bass Enters)


        G |--7-------------|
    Main  D |---7-79---/12---|
    Bass  A |7-------7----12\|
    Riff  E |0---------------|


    Piano   |Em7, Em7, Em7, Em7| Em7, A6, A6, A6|
    with                      X 4
    main   |Bm, Bm, Bm, Bm,| Bm, Bm, Bm, Bm |
    bass
    riff

 Verse 1


    Piano   |Em7, Em7, Em7, Em7| Em7, A6, A6, A6|
    with                      X 8
    main   |Bm, Bm, Bm, Bm, | Bm, Bm, Bm, Bm |
    bass
    riff

 Chorus 1

    Bass   G |----------------|
        D |----------------| X 1
        A |----------------|
        E |3333333333333333|

        G |----------------|
        D |---------------3| X 3
        A |-------------5--|
        E |10101010-3-3----|
         (Ahh ah ah ahh)

        G |----------------|
        D |----------------| X 1
        A |3333333333333333|
        E |----------------|
         (Sing to me)

        G |----------------|
        D |---------------3| X 3
        A |-------------5--|
        E |10101010-3-3----|
         (Ahh ah ah ahh)

        G |----------------|
        D |----------------| X 1
        A |3333333333333333|
        E |----------------|
         (Sing to me)


    Piano   |Em7, Em7, Em7, Em7| Em7, A6, A6, A6|
    with                      X 4
    main   |Bm, Bm, Bm, Bm,| Bm, Bm, Bm, Bm |
    bass
    riff

 Verse 2


    Piano   |Em7, Em7, Em7, Em7| Em7, A6, A6, A6|
    with                      X 4
    main   |Bm, Bm, Bm, Bm,| Bm, Bm, Bm, Bm |
    bass
    riff


 Chorus 2

    Bass   G |----------------|
        D |----------------| X 1
        A |----------------|
        E |3333333333333333|

        G |----------------|
        D |---------------3| X 3
        A |-------------5--|
        E |10101010-3-3----|
         (Ahh ah ah ahh)

        G |----------------|
        D |----------------| X 1
        A |3333333333333333|
        E |----------------|
         (Sing to me)

        G |----------------|
        D |---------------3| X 3
        A |-------------5--|
        E |10101010-3-3----|
         (Ahh ah ah ahh)

        G |----------------|
        D |----------------| X 1
        A |3333333333333333|
        E |----------------|
         (Sing to me)


    Piano   |Em7, Em7, Em7, Em7| Em7, A6, A6, A6|
    with                      X 4
    main   |Bm, Bm, Bm, Bm,| Bm, Bm, Bm, Bm |
    bass
    riff


 Chorus 3

    Bass   G |----------------|
        D |----------------| X 1
        A |----------------|
        E |3333333333333333|

        G |----------------|
        D |---------------3| X 3
        A |-------------5--|
        E |10101010-3-3----|
         (Ahh ah ah ahh)

        G |--------------------|
        D |--------------------| X 1
        A |33333333333333337---|
        E |----------------0---|
         (Sing to me)


 Outro

        G |--7-------------|
        D |---7-799-77-----|
        A |7-----------7---|
        E |0---------------|

        G |--7-------------|
        D |---7-799-1212---|
        A |7-------------14|
        E |0---------------|

        G |--7-------------|
        D |---7------------|
        A |7---------------|
        E |0---------------|


                 END

            Transcribed by McSkillby
            See YouTube for video
         https://www.youtube.com/watch v=iBGH8ydz38o
ⓘ Bass guitar tab for 'Sing' by Blur, an alternative rock band formed in 1988 from London, England. Blur is known for their poignant britpop music.

Almost there ...

Sign in to get your own page with links to favourite songs and more. You are just one click away...

Login with Facebook Login with Google