Log in

One click and you are in

Login with Facebook Login with Google

Why sign up and log in

Guitar Tabs Explorer
Blur bass tabs for People in europe

Bass tabs

Intro:

G|-----------------|-----------------|-----------------|----\99-----5----|
D|-----------------|-----------------|-----------------|---------------9-|
A|-----------------|-----------------|-----------------|-----------------|
E|-----------------|-----------------|-----------------|-----------------|

G|-----------------|-----------------|-----7---5-------|----\999----5----|
D|-----7-------7---|-0---5---7---9---|-------------7---|---------------7-|
A|-0-------7-------|-----------------|-5---------------|-----------------| x3
E|-----------------|-----------------|-----------------|-----------------|


Verse 1:

G|-----------------|-----------------|-----7---5-------|----\999----5----|
D|-----7-------7---|-0---5---7---9---|-------------7---|---------------7-|
A|-0-------7-------|-----------------|-5---------------|-----------------| x2
E|-----------------|-----------------|-----------------|-----------------|


Chorus]

G|-----9---5---4---|----99---5---4---|-777----5--------|----\999----5----|
D|-7---------------|-7---------------|-------------7---|---------------7-|
A|-----------------|-----------------|-----------------|-----------------| x2
E|-----------------|-----------------|-----------------|-----------------|


Bridge:

G|-----------------|-----------------|-----7---5-------|----\999----5----|
D|-----7-------7---|-0---5---7---9---|-------------7---|---------------7-|
A|-0-------7-------|-----------------|-5---------------|-----------------| x2
E|-----------------|-----------------|-----------------|-----------------|


Verse 2:

G|-----------------|-----------------|-----7---5-------|----\999----5----|
D|-----7-------7---|-0---5---7---9---|-------------7---|---------------7-|
A|-0-------7-------|-----------------|-5---------------|-----------------| x2
E|-----------------|-----------------|-----------------|-----------------|


Chorus:

G|-----9---5---4---|----99---5---4---|-777----5--------|----\999----5----|
D|-7---------------|-7---------------|-------------7---|---------------7-|
A|-----------------|-----------------|-----------------|-----------------| x2
E|-----------------|-----------------|-----------------|-----------------|

G|-----------------|-----------------|-----7---5-------|----\999----5----|
D|-----7-------7---|-0---5---7---9---|-------------7---|---------------7-|
A|-0-------7-------|-----------------|-5---------------|-----------------| x2
E|-----------------|-----------------|-----------------|-----------------|


Outro:

G|-----------------|-----------------|-----7---5-------|----\999----5----|
D|-----7-------7---|-0---5---7---9---|-------------7---|---------------7-|
A|-0-------7-------|-----------------|-5---------------|-----------------| x4
E|-----------------|-----------------|-----------------|-----------------|

G|----9---5--4-----|-----99--(5)5--4-|-777----5--------|----\999----5----|
D|-7---------------|(7)7-------------|-------------7---|---------------7-|
A|-----------------|-----------------|-----------------|-----------------| x2
E|-----------------|-----------------|-----------------|-----------------|


outro starts again as it fades


☠☠☠☠☠☠☠☠☠☠☠☠☠☠☠☠☠☠☠☠☠☠☠☠☠☠☠☠☠☠☠☠☠☠☠☠

| \  Slide down
| (n) Ghost note

☠☠☠☠☠☠☠☠☠☠☠☠☠☠☠☠☠☠☠☠☠☠☠☠☠☠☠☠☠☠☠☠☠☠☠☠
ⓘ Bass guitar tab for 'People In Europe' by Blur, an alternative rock band formed in 1988 from London, England. Blur is known for their poignant britpop music.

Almost there ...

Sign in to get your own page with links to favourite songs and more. You are just one click away...

Login with Facebook Login with Google