Log in

One click and you are in

Login with Facebook Login with Google

Why sign up and log in

Guitar Tabs Explorer
Blur bass tabs for Parklife

Bass tabs

---------------------------------------------------------------------------

               PARKLIFE – Blur

---------------------------------------------------------------------------

Tabbed By : Minty731
e-mail: samlinger2000@yahoo.co.uk
Tuning: Standard


A nice easy song, but couldn’t find a decent tab anywhere. Just listen to the record for
the correct timing.

The verse part basically repeats, but there is a slight variation as you go into the chorus.


The below riff just repeats throughout the entire verse.

Riff 1:

G|------------------------------------------------------------------------|
D|------------------------------------------------------------------------|
A|---1-2-2-1-0----1-2-2-1-0----1-2-2-1-0----1-2-2-1-0---------------------|
E|-0------------0------------0------------0-------------------------------|


Then on the final part of each verse as you go into the chorus he plays this shown below.

Riff 2:
G|-----------------------------------------------------------------------|
D|-----------------------------------------------------------------------|
A|---1-220---------------------------------------------------------------|
E|-0------3--------------------------------------------------------------|


Chorus:

G|------------------------------------------------------------------------|
D|--------------------------5-5-4-4-2-2-----------------------------------|
A|---1-2-2-1-0----1-2-2-1-0----------2--5-5-3-3-2-2-----------1-2-2-22-0-2|
E|-0------------0------------------------5---3---2--5-0-5-0-5-------------|


After the first chorus he then plays this:

G|------------------------------------------------------------------------|
D|--------------------22--------------------------------------------------|
A|---1-2-2-1-0----1-2-----------------------------------------------------|
E|-0------------0---------------------------------------------------------|

And there you have it.
The rest of the song just repeats itself as above.

ⓘ Bass guitar tab for 'Parklife' by Blur, an alternative rock band formed in 1988 from London, England. Blur is known for their poignant britpop music.

Almost there ...

Sign in to get your own page with links to favourite songs and more. You are just one click away...

Login with Facebook Login with Google