Log in

One click and you are in

Login with Facebook Login with Google

Why sign up and log in

Guitar Tabs Explorer
Blur bass tabs for My terracotta heart

Bass tabs with lyrics

Tuning: Standard (E A D G)

Difficulty: Intermediate


Intro: (0:03 - 0:18)

G|--------------|-------------|
D|--------7-----|---------6---|
A|---7----------|----7--------|
E|-5------------|--5----------| (x2)

Verse 1: (0:18 - 0:48)

G|--------------|-------------|
D|--------7-----|---------6---|
A|---7----------|----7--------|
E|-5------------|--5----------| (x4)

G|--------------|-------------|------|
D|--------7-----|---------6---|------|
A|---7----------|----7--------|------|
E|-5------------|--5----------|---0--|


Chorus: (0:49 - 1:01 + 1:05 - 1:16)

G|-----5h7-|---5----|-4h5---4---|----------|
D|-7-------|--------|-----------|-7--5---5-|
A|--7------|--------|-----------|------8---|
E|---------|--------|-----------|----------|

G|-------9-|---7----|--12----9--|----------|
D|-5-------|--------|-----------|12-10-9-10|
A|---5-----|--------|-----------|----------|
E|---------|--------|-----------|----------|

G|---------|--------|-----------|----------|
D|------7--|--7-----|-----------|----------|
A|-7-------|-----7--|---8-------|---5------|
E|---------|--------|-----------|----------|

Chorus Ending 1: (1:01 - 1:05)

G|---------|7----12----|-------|----------|
D|--5------|----------6|-------|----------|
A|-----5---|-----------|7-7-7-7|----------|
E|---------|-----------|-------|---10-7-8-|


Chorus Ending 2: (1:16 - 1:20)
G|---------|-----------|-------|----------|
D|-5-------|----------6|-------|----------|
A|---------|-----------|7-7-7-7|----------|
E|---------|-----------|-------|---10-7---|


Bridge: (1:20 - 1:27)

G|--------|--------|--------|--------|
D|--------|--------|--------|-5------|
A|-5-5-7-5|-8-7-5-7|-5-5-7-5|---8-7-8|
E|--------|--------|--------|--------|

*Either play this bridge or just rest until 1:27 - depending on studio and live versions of the song,
Alex James often doesn't play it.


Verse 2: (1:27 - 1:58)

G|--------------|-------------|
D|--------7-----|---------6---|
A|---7----------|----7--------|
E|-5------------|--5----------| (x3)

G|--------------|-------------|------|
D|--------7-----|---------6---|------|
A|---7----------|----7--------|------|
E|-5------------|--5----------|---0--|


Chorus:

G|-----5h7-|---5----|-4h5---4---|----------|
D|-7-------|--------|-----------|-7--5---5-| \
A|--7------|--------|-----------|------8---| \
E|---------|--------|-----------|----------|  \
                        \
G|-------9-|---7----|--12----9--|----------|   \
D|-5-------|--------|-----------|12-10-9-10|   \
A|---5-----|--------|-----------|----------|    \
E|---------|--------|-----------|----------|    \
                           \
G|---------|--------|-----------|----------|     \
D|------7--|--7-----|-----------|----------|      \
A|-7-------|-----7--|---8-------|---5------|       (x2) (1:59 - 3:00)
E|---------|--------|-----------|----------|      /
                           /

Chorus Ending 1:                  /
G|---------|7----12----|-------|----------|     /
D|--5------|----------6|-------|----------|    /
A|-----5---|-----------|7-7-7-7|----------|    /
E|---------|-----------|-------|---10-7-8-|   /
                        /

Chorus Ending 2:               /
G|---------|-----------|-------|----------|  /
D|-5-------|----------6|-------|----------| /
A|---------|-----------|7-7-7-7|----------| /
E|---------|-----------|-------|---10-7---|


Outro: (Same as Chorus)

G|-----5h7-|---5----|-4h5---4---|----------|
D|-7-------|--------|-----------|-7--5---5-| \
A|--7------|--------|-----------|------8---| \
E|---------|--------|-----------|----------|  \
                        \
G|-------9-|---7----|--12----9--|----------|   \
D|-5-------|--------|-----------|12-10-9-10|   \
A|---5-----|--------|-----------|----------|    \
E|---------|--------|-----------|----------|    \
                           \
G|---------|--------|-----------|----------|     \
D|------7--|--7-----|-----------|----------|      \
A|-7-------|-----7--|---8-------|---5------|       Repeat Until Fadeout
E|---------|--------|-----------|----------|      /
                           /

Chorus Ending 1:                  /
G|---------|7----12----|-------|----------|     /
D|--5------|----------6|-------|----------|    /
A|-----5---|-----------|7-7-7-7|----------|    /
E|---------|-----------|-------|---10-7-8-|   /
                        /

Chorus Ending 2:               /
G|---------|-----------|-------|----------|  /
D|-5-------|----------6|-------|----------| /
A|---------|-----------|7-7-7-7|----------| /
E|---------|-----------|-------|---10-7---|


************************************

| h Hammer-on
| \ Slide down
| / Slide up

************************************
ⓘ Bass guitar tab for 'My Terracotta Heart' by Blur, an alternative rock band formed in 1988 from London, England. Blur is known for their poignant britpop music.

Almost there ...

Sign in to get your own page with links to favourite songs and more. You are just one click away...

Login with Facebook Login with Google