Log in

One click and you are in

Login with Facebook Login with Google

Why sign up and log in

Guitar Tabs Explorer
Blur bass tabs for Music is my radar

Bass tabs

Tuning: Standard (E A D G)

Artista: Blur
Cancion: Music Is My Radar
Album: Blur: The Best of
Año: 2000

the real part of the bass doesn't start until 0:55 but if you want to play the intro, it would be:


Intro:

G|---------------------|x12
D|---------------------|
A|---10-12-10-12/14----|
E|12~---------------12~|


Verse 1: (0:55)

G|-----------------|x4
D|---5-------------|
A|-7---7-5---------|
E|---------7-5-7-0~|


Scale:

G|--------------------------------------------|------------12----12-11-14-12h14/16/19|x2
D|---------------------------------12----12-14|12-14-12-14----14---------------------|
A|---------10-10-12-10-12/14-12-14----14------|--------------------------------------|
E|12-10-12------------------------------------|--------------------------------------|


Chorus:

G|----------------------|x8
D|----------------------|
A|5-7---7~--------------|
E|----0----3-2-3~2-3-2-0|


Interlude:

G|--------------------|x4
D|--------------------|
A|--3-5---3-5---3-5---|
E|0~----0~----0~----0~|


Verse 2:

G|----------------------|x8
D|----------------------|
A|5-7---7~--------------|
E|----0----3-2-3~2-3-2-0|


Interlude:

G|--------------------|x4
D|--------------------|
A|--3-5---3-5---3-5---|
E|0~----0~----0~----0~|

G|--------------------|x4
D|--------------------|
A|--3-5---3-5---3-5---|
E|0~----0~----0~----0~|


Scale:

G|--------------------------------------------|------------12----12-11-14-12h14/16/19|x2
D|---------------------------------12----12-14|12-14-12-14----14---------------------|
A|---------10-10-12-10-12/14-12-14----14------|--------------------------------------|
E|12-10-12------------------------------------|--------------------------------------|


Outro:

G|----------------------|(Until the end)
D|----------------------|
A|5-7---7~--------------|
E|----0----3-2-3~2-3-2-0|


************************************

| h  Hammer-on
| /  Slide up
| ~  Vibrato

************************************
ⓘ Bass guitar tab for 'Music Is My Radar' by Blur, an alternative rock band formed in 1988 from London, England. Blur is known for their poignant britpop music.

Almost there ...

Sign in to get your own page with links to favourite songs and more. You are just one click away...

Login with Facebook Login with Google