Log in

One click and you are in

Login with Facebook Login with Google

Why sign up and log in

Guitar Tabs Explorer
Blur tabs for Mace

Guitar tabs

MACE
BLUR
FROM POPSCENE B-SIDE
1992
--------------------
Tabbed by AAuuddee@aol.com

INTRO:

------------
------------
--6h7p6h7p--repeat
------------
------------
------------
                                                         repeat
--------------13--12--10---------------------------------------
--------12----13--12--10--7--7--7--7--s------------------------
-----12----12-------------7--7--9--7--s(towards higher notes)--
--12----------------------7--7--7--7--s------------------------
---------------------------------------------------------------
---------------------------------------------------------------


VERSE1:
                                                         repeat
--------------13--12--10---------------------------------------
--------12----13--12--10--7--7--7--7--s------------------------
-----12----12-------------7--7--9--7--s(towards higher notes)--
--12----------------------7--7--7--7--s------------------------
---------------------------------------------------------------
---------------------------------------------------------------


CHORUS:

Guitar1:

------------
------------
--6h7p6h7p--repeat
------------
------------
------------

Guitar2:

  A chord diagramG+G   A chord diagramD MajorD
--3---2--
--3---3--
--4---2--repeat
--5---0--
--5------
--3------


VERSE RIFF:
                                                         repeat
--------------13--12--10---------------------------------------
--------12----13--12--10--7--7--7--7--s------------------------
-----12----12-------------7--7--9--7--s(towards higher notes)--
--12----------------------7--7--7--7--s------------------------
---------------------------------------------------------------
---------------------------------------------------------------


BRIDGE:

-----------------------------------------------
-----------------------------------------------
-----------------------------------------------
----2--0--------0h2r0-----2--0--------0-----0--
---------2--0h2-------2--------2--0h2---0h2----
--0---------------------0----------------------


VERSE2: same as verse1


CHORUS


VERSE RIFF repeated


BRIDGE


VERSE3: same as the others


CHORUS


VERSE RIFF repeated


ENDING:

Guitar1:
                                                         repeat
--------------13--12--10---------------------------------------
--------12----13--12--10--7--7--7--7--s------------------------
-----12----12-------------7--7--9--7--s(towards higher notes)--
--12----------------------7--7--7--7--s------------------------
---------------------------------------------------------------
---------------------------------------------------------------

Guitar2: disto

---------------------
---------------------
--5s7~--5------------
----------7--5-------repeat
---------------8--5--
---------------------

----------------------------------------------------
----------------------------------------------------
----------------------------------------------------
----2--0--------0h2r0-----2--0--------0-----0--0~~--
---------2--0h2-------2--------2--0h2---0h2---------
--0---------------------0---------------------------


THE END!!!
ⓘ Guitar tab for 'Mace' by Blur, an alternative rock band formed in 1988 from London, England. Blur is known for their poignant britpop music.

Almost there ...

Sign in to get your own page with links to favourite songs and more. You are just one click away...

Login with Facebook Login with Google