Log in

One click and you are in

Login with Facebook Login with Google

Why sign up and log in

Guitar Tabs Explorer
Blur bass tabs for Lot 105

Bass tabs

Album: Parklife

Tabbed by: Ben Potts
E-mail: backseatben@hotmail.com

I'm pretty sure this is correct, but it's hard to hear the bass on the bit when the song
kicks in.

Email me for corrections.

First bass line
G---------------------------------|
D---------------------------------|
A-3-------5-----2-----1-2---2-3-4-|
E---0-3-5---2-5---1-5-----3-------| (x3)

G---------------------------------|
D---------------------------------|
A-3-------5-----2-----1-2-2-------|
E---0-3-5---2-5---1-5-------3-3---|


Second bass line (With guitars)

Ending 1 Ending 2

Ending 3 Ending 4
G---------------------------------|--------|--------|--------|--------|
D-1/-2------------------3--3---2-3|-4-5-5--|-5-1----|-5-5---5|-5------|
A------3---2-3-5--5---5------3----|-------5|-----5--|-----5--|--------|
E--------3----------5-------------|--------|--------|--------|--------|

(Again, but super fast this time! With breaks.)

			Ending 1    Ending 2
G----------------------|BREAK|-----------|--------|BREAK|--------|BREAK|
D-1/-2-----------------|BREAK|-3--3---2-3|-4-5-5--|BREAK|-5-1----|BREAK|
A------3---2-3-5--5---5|BREAK|------3----|-------5|BREAK|-----5--|BREAK|
E--------3----------5--|BREAK|-----------|--------|BREAK|--------|BREAK|

(Again, without the breaks, but still super fast!)


Ending 3 Ending 4
G---------------------------------|--------|--------|
D-1/-2------------------3--3---2-3|-5-5---5|--------|
A------3---2-3-5--5---5------3----|-----5--|-3------|

ⓘ Bass guitar tab for 'Lot 105' by Blur, an alternative rock band formed in 1988 from London, England. Blur is known for their poignant britpop music.

Almost there ...

Sign in to get your own page with links to favourite songs and more. You are just one click away...

Login with Facebook Login with Google