Log in

One click and you are in

Login with Facebook Login with Google

Why sign up and log in

Guitar Tabs Explorer
Blur tabs for Chemical world

Guitar tabs with lyrics

CHEMICAL WORLD
BLUR
FROM THE ALBUM MODERN LIFE IS RUBBISH
1993
--------------------------------------
Tabbed by AAuuddee@aol.com

INTRO:
  A chord diagramA augmentedA   A chord diagramD MajorD
--5---2-----------------
--5---3-----------------
--6---2--2--4r2--4r2---- x2
--7---0--------------3--
--7---------------------
--5---------------------

   A chord diagramA augmentedA
--*5--
---5--
---6--
---7--
---7--
---5--

*2nd guitar starts here playing the verse riff:

guitar only:
---------9------------9h10r9--------------------------
------10---10------10--------10-----------------------
------------------------------------------------------
---------------------------------------0--12--9h10r9--
--12-----------11----------------11s12----------------
------------------------------------------------------

-------------
-------------
-------------
--7--9r7-----
---------10--
-------------

distortion and other instruments:
---------9------------9h10r9--------------------------
------10---10------10--------10-----------------------
------------------------------------------------------
---------------------------------------0--12--9h10r9--
--12-----------11----------------11s12----------------
------------------------------------------------------

-------------
-------------
-------------
--7--9r7-----
---------10--
-------------

An acoustic guitar plays these chords in the same time:

  A chord diagramA augmentedA  A/Ab  A chord diagramD MajorD   A chord diagramC majorC   A chord diagramG+G
--5--------2---0---3---
--5--------3---1---0---
--6---6----2---0---0---
--7---7----0---2---0---
--7---7--------3---2---
--5---4------------3---


VERSE1:

---------9------------9h10r9--------------------------
------10---10------10--------10-----------------------
------------------------------------------------------
---------------------------------------0--12--9h10r9--
--12-----------11----------------11s12----------------
------------------------------------------------------

------------- repeat
-------------
-------------
--7--9r7-----
---------10--
-------------

An acoustic guitar plays these chords in the same time:

  A chord diagramA augmentedA  A/Ab  A chord diagramD MajorD   A chord diagramC majorC   A chord diagramG+G
--5--------2---0---3--- repeat
--5--------3---1---0---
--6---6----2---0---0---
--7---7----0---2---0---
--7---7--------3---2---
--5---4------------3---


CHORUS1:
                                                   repeat
-------------------------------------------2-----------------
------5--5--------5s2--------------5-------3-----------------
----6--------6--6-----4--2----4s6--6--4----2--2--4r2--4r2----
--7--------6---------------4--4s6--6----4--0--------------3--
-------------------------------------------------------------
-------------------------------------------------------------


--5---4--4s5--5--4--4s5--5--5--
--5---4--4s5--5--4--4s5--5--5--
--6----------------------------
--7----------------------------
--7----------------------------
--5----------------------------

An acoustic guitar plays these chords in the same time:

  A chord diagramA augmentedA  AM7 A chord diagramF# minorF#m A chord diagramC# minorC#m  A chord diagramB minorBm  A chord diagramD MajorD   A chord diagramFF
--5---0---2---4---2---2---1-- repeat
--5---2---2---5---3---3---1--
--6---1---2---6---4---2---2--
--7---2---4---6---4---0---3--
--7---0---4---4---2-------3--
--5-------2---------------1--


VERSE2: same as verse1


CHORUS2:
                                                  repeat
-------------------------------------------2-----------------
------5--5--------5s2--------------5-------3-----------------
----6--------6--6-----4--2----4s6--6--4----2--2--4r2--4r2----
--7--------6---------------4--4s6--6----4--0--------------3--
-------------------------------------------------------------
-------------------------------------------------------------

end on a A:

--5--
--5--
--6--
--7--
--7--
--5--

An acoustic guitar plays these chords in the same time:

  A chord diagramA augmentedA  AM7 A chord diagramF# minorF#m A chord diagramC# minorC#m  A chord diagramB minorBm  A chord diagramD MajorD   A chord diagramFF
--5---0---2---4---2---2---1-- repeat
--5---2---2---5---3---3---1--
--6---1---2---6---4---2---2--
--7---2---4---6---4---0---3--
--7---0---4---4---2-------3--
--5-------2---------------1--


BRIDGE: play the intro twice and then the verse twice


CHORUS2: until the end



ENJOY!!!
ⓘ Guitar tab for 'Chemical World' by Blur, an alternative rock band formed in 1988 from London, England. Blur is known for their poignant britpop music.

Almost there ...

Sign in to get your own page with links to favourite songs and more. You are just one click away...

Login with Facebook Login with Google