Log in

One click and you are in

Login with Facebook Login with Google

Why sign up and log in

Guitar Tabs Explorer
Blur bass tabs for Chemical world

Bass tabs

Tuning: Standard (E A D G)

Difficulty: Novice

This is the bass tab for Chemical world, it is mainly 2 riffs so it isnt too difficult to play or remember


Intro:
G|---------------|-------------------|-------------------|--------------------------|
D|-/7-7-7--6--6--|-4-4---------------|-/7-7-7--6---6-----|-4-4---2p0h2--\5p0h5--\7-|
A|-----7----7--7-|----5--/3p0h3------|-----7-----7---7---|-----5--------------------|
E|---------------|-------------3p0h3-|-------------------|--------------------------|

G|---------------|-------------------|
D|-/7-7-7--6--6--|-4-4---------------|
A|-----7----7--7-|----5--/3p0h3------|
E|---------------|-------------3p0h3-|


Verse:
G|-------------------|----------------------|
D|-/7-7--7--6---6----|-4-4----2p0h2--/5p0h5-|
A|------7-----7--7---|-----5----------------| X4
E|-------------------|----------------------|


Chorus:
G|----6----6-6--|---------------|---------------------|----6----6-9-6-|---------------|
D|-7-7--7-6-6---|-4-4--4--2-2---|---------------------|-7-7--7-6------|-4-4--4--2-2---|
A|--------------|-----5-------4-|-2-----2-0h5p0h5-7-7-|---------------|-----5-------4-|
E|--------------|---------------|----0-2--------------|---------------|---------------|

G|-----------------------|
D|--------------------r7-|
A|-2-----2-0h5p0h5-7-7---|
E|----0-2----------------|


Verse 2:
G|---------------|-------------------|-------------------|-------------------------|
D|-/7-7-7--6--6--|-4-4---------------|-/7-7-7--6---6-----|-4-4---2p0h2--\5p0h5--\7-|
A|-----7----7--7-|----5--/3p0h3------|-----7-----7---7---|-----5-------------------| X2
E|---------------|-------------3p0h3-|-------------------|-------------------------|


Chorus:
G|----6----6-6--|---------------|---------------------|----6----6-9-6-|---------------|
D|-7-7--7-6-6---|-4-4--4--2-2---|---------------------|-7-7--7-6------|-4-4--4--2-2---|
A|--------------|-----5-------4-|-2-----2-0h5p0h5-7-7-|---------------|-----5-------4-|
E|--------------|---------------|----0-2--------------|---------------|---------------|

G|-----------------------|
D|--------------------r7-|
A|-2-----2-0h5p0h5-7-7---|
E|----0-2----------------|


Instrumental bit:
G|---------------|----------------------|        |-----------------|---------------------|
D|-/7-7-7--6--6--|-4-4---------------/7-|  A pause for |-/7-7-7--6---6---|-4-4---2-2--5-5--\7-|
A|-----7----7--7-|----5--/3p0h3---------|X2 just guitar |-----7-----7---7-|-----5---------------|
E|---------------|-------------3p0h3----|        |-----------------|---------------------|


Chorus:
G|----6----6-6--|---------------|---------------------|----6----6-9-6-|---------------|
D|-7-7--7-6-6---|-4-4--4--2-2---|---------------------|-7-7--7-6------|-4-4--4--2-2---|
A|--------------|-----5-------4-|-2-----2-0h5p0h5-7-7-|---------------|-----5-------4-|
E|--------------|---------------|----0-2--------------|---------------|---------------|

G|----------------------|
D|--------------------7-|
A|-2-----2-0h5p0h5-7-7--| X2
E|----0-2---------------|


Outro, leads straight from the chorus:
G|----6----6-9-6-|---------------|----------------------|----6---------|--------------|----------------------|
D|-7-7--7-6------|-4-4--4--2-2---|----------------------|-7-7--7-6-8-6-|-4-4--4-2-2---|----------------------|
A|---------------|-----5-------4-|-2-----2-0h5p0h5-7-7--|--------------|----5------4--|-2-----2-0h5p0h5-7-7--|
E|---------------|---------------|----0-2---------------|--------------|--------------|----0-2---------------|

G|----6-7--6-6-|---------------|----------------------|----6----6-6--|---------------|---------------------|
D|-7-7----7-7--|-4-4--4--2-2---|----------------------|-7-7--7-6-6---|-4-4--4--2-2---|---------------------|
A|-------------|-----5-------4-|-2-----2-0h5p0h5-7-7--|--------------|-----5-------4-|-2-----2-0h5p0h5-7-7-|
E|-------------|---------------|----0-2---------------|--------------|---------------|----0-2--------------|
 Basically the chorus riff until the end..


************************************

| h Hammer-on
| p Pull-off
| / Slide up
| \ Slide down
| r Release

************************************
ⓘ Bass guitar tab for 'Chemical World' by Blur, an alternative rock band formed in 1988 from London, England. Blur is known for their poignant britpop music.

Almost there ...

Sign in to get your own page with links to favourite songs and more. You are just one click away...

Login with Facebook Login with Google