Log in

One click and you are in

Login with Facebook Login with Google

Why sign up and log in

Guitar Tabs Explorer
Blur bass tabs for Beetlebum

Bass tabs

SONG: Beetlebum
ARTIST: Blur
ALBUM: Blur
AUTHOR: Albarn/Coxon/James/Rowntree
PUBLISHER: (c) 1997 EMI Music Publishing

TUNING: E A D G

Verse:
G|---------|----------------------------------------------------------
D|---------|----------------------------------------------------------
A|---------|----------------------------------3-3-------------3-3-----
E|--/7-5\--|--5-5-0-5-5-5-0-5-5-5-0-5-5-5-0-5---------3-3-------------

 -----------------------------------------------------------------
 ------0-2-3-3----3-3-3----3-3-3----3-3-3----3-5-5----5-5-5----5--
 --3-3---------3/-------3/-------3/-------3/-------5/-------5/----
 -----------------------------------------------------------------

 ------------------------------------|
 --5-5----5--------------------------| (and when she lets me
 ------5/----------------------------|        slip away)
 -----------/7-5\-5-5-0-5-5-5-0-5-5--|


Chorus:
G|-----5-----------4--------------------------------------
D|-------5-----------4------------------------------------
A|--3-------3--2-2------2---------------------------------
E|-------------------------5--5--5-0-0-0-1--1-1--0-0---0--

 ----------------------------------------------------|-----
 ----------3-3---3--6^-6^-3-3-6^-6^-3-3--------------|-----
 ------3-3------------------------------3-3-----5-5--|--3--
 --5-5--------------------------------------1-1------|-----


Outro:
G|---------------------------------------------------------------------
D|--7-------7-------7-7----7-7-7----------------------------------0-2--
A|----0-------0---------7/-------7\---3-3-------------3-3-----3-3------
E|--------------------------------------------3-3----------------------

 -----------------------------------------------------------------
 --3-3----3-3-3----3-3-3---3-3-3----3-5-5----5-5-5----5-5-5----5--
 ------3/-------3/------3/-------3/-------5/-------5/-------5/----
 -----------------------------------------------------------------

 ---------|-----
 --/9-7\--|--7--
 ---------|-----
 ---------|-----


   This is my own work. Rip me off and you will die.

ⓘ Bass guitar tab for 'Beetlebum' by Blur, an alternative rock band formed in 1988 from London, England. Blur is known for their poignant britpop music.

Almost there ...

Sign in to get your own page with links to favourite songs and more. You are just one click away...

Login with Facebook Login with Google