Log in

One click and you are in

Login with Facebook Login with Google

Why sign up and log in

Guitar Tabs Explorer
Blur tabs for Battery in your leg

Guitar tabs with lyrics

blur
battery in your leg
thinktank

     this is a beautiful song.

this intro is a representation of the piano´s bit.

e----------------------------------
b----------------------------------
g----------------------------------
d----------------------------------
a--3---------2---------0-----------  repeat
e----------------------------------

e-----0----------0---------0-------
b-----1----------1---------1-------
g-----0----------0---------2-------
d----------------------------------
a--3---------2---------0-----------  repeat
e----------------------------------

 then 2 bar rest.
       --------------------
  A chord diagramC majorC          A chord diagramE minorEm                  A chord diagramDm7Dm7
  this is a ballad for the good times
  A chord diagramC majorC          A chord diagramE minorEm                  A chord diagramDm7Dm7
  So put a...
  A chord diagramC majorC     A chord diagramE minorEm                A chord diagramA minorAm
  Get a rock beat...(bash away for this line)
  A chord diagramC majorC          A chord diagramE minorEm                 A chord diagramDm7Dm7
  get it...
  A chord diagramDm7Dm7      A chord diagramG+G
  you can be with me

  (repeat verse, you can spice it up by removing high A chord diagramFF to A chord diagramE MajorE
every now and again)

 solo

e----------------------------------------
b---6--5---------------------------------
g---------4--5---------------------------
d--------------5--3--2-------------------
a-----------------------3----------------
e--------------------------3--1-0-1------

e----------------------------------------
b---6--5---------------------------------
g---------4--5---------------------------
d----------------5--3--2-----------------
a----------------------------------------
e----------------------------------------

repeat first line of solo

e----------------------------------------
b--6--5----------------------------------
g--------4--5--0-------------------------
d----------------------------------------
a----------------------------------------
e----------------------------------------

 A chord diagramC majorC        A chord diagramE minorEm            A chord diagramDm7Dm7
 I aint...
 A chord diagramC majorC        A chord diagramE minorEm            A chord diagramDm7Dm7
 i´ve broken...
 A chord diagramC majorC    A chord diagramE minorEm           A chord diagramA minorAm
 everybody...
 A chord diagramC majorC        A chord diagramE minorEm            A chord diagramDm7Dm7
 but you know...
 A chord diagramDm7Dm7     A chord diagramG+G                   A chord diagramG+G
 you can be with me if you wanna be you can be
      A chord diagramDm7Dm7
 with me

 on the¨me¨ go straight into solo then the piano does a bit. It seems suitable
to end on A chord diagramC majorC if you don´t have a piano. thanks all work is my own except solo,
which is thanks to Joe.
                                    O.O.F

ⓘ Guitar tab for 'Battery In Your Leg' by Blur, an alternative rock band formed in 1988 from London, England. Blur is known for their poignant britpop music.

Almost there ...

Sign in to get your own page with links to favourite songs and more. You are just one click away...

Login with Facebook Login with Google