Log in

One click and you are in

Login with Facebook Login with Google

Why sign up and log in

Guitar Tabs Explorer
Blur bass tabs for Bad day

Bass tabs

Post some corrections in the comments if you find any. I'll be trying to do more Leisure
bass tabs soon.


Intro/Prechorus/Preverse

G|-----------|----------|
D|-----------|----------|
A|-5-5-3p2h3-|-3-3---3--|
E|-----------|-----5----|
Verse 1 & 3

G|-----------|----------|-----------|----------|
D|-----------|----------|-----------|----------|
A|-5-5-3p2h3-|-5-5-3p2h5|-5-5-3p2h3-|-5-5-3p2h5|
E|-----------|----------|-----------|----------|

"No/Yes she said..."

G|---------------|
D|---------------|
A|-3--3--0-2-3-4-|
E|---------------|


Verse 2 & 4

G|-----------|-5--------|-5---------|-----------|
D|-----------|----------|-----------|-----------|
A|-5-5-3p2h3-|---5-3p2h3|---5-3p2h3-|-5-5-3p2h5-|
E|-----------|----------|-----------|-----------|


Chorus

G|-----------|---------5-------|-----------|-----------|---------|
D|-----------|-----5/7---7p5p0-|-----------|-----5p4-5-|---------|
A|-5-5-3p2h3-|-5-5-------------|-5-5-3p2h3-|-5-5-------|-5-5-0-2-|
E|-----------|-----------------|-----------|-----------|---------|
^^This leads into the "No she said..." part^^


Interlude Before Solo (Just kind of listen along. Alex is just doing whatever with
something like this.)

G|-----------------------|
D|---------------5p4-5p4-|
A|-5-5-3p2-3p2-5---------|
E|-----------------------|


Solo

G|-----------|----------|
D|-----------|----------|
A|-5-5-3p2h3-|-3-3---3--|

ⓘ Bass guitar tab for 'Bad Day' by Blur, an alternative rock band formed in 1988 from London, England. Blur is known for their poignant britpop music.

Almost there ...

Sign in to get your own page with links to favourite songs and more. You are just one click away...

Login with Facebook Login with Google