Log in

One click and you are in

Login with Facebook Login with Google

Why sign up and log in

Guitar Tabs Explorer
Blur tabs for A song

Guitar tabs

A chord diagramA augmentedA SONG
BLUR
FROM CHARMLESS MAN B-SIDE
1996
--------------------------
Tabbed by AAuuddee@aol.com

INTRO:

Guitar1:Acoustic guitar

  A chord diagramA minorAm       A chord diagramC majorC        A chord diagramD MajorD
--------------------------2--
--------1--------1------3----
------2--------0------2------
----2--------2------0--------
--0--------3-----------------
-----------------------------

  A chord diagramA minorAm       A chord diagramC majorC        A chord diagramEb MajorEb
-----------------------------
--------1--------1--------8--
------2--------0--------8----
----2--------2--------8------
--0--------3--------6--------
-----------------------------

Guitar2: electric

--------------------------------------------
--10h12--10h12--10h12--10h12--10h12--10h12--
--------------------------------------------
--------------------------------------------
--------------------------------------------
--------------------------------------------

-------------------------------------------------
--10--13h10--13h10--13h10--13h10--11h10--11h10~--
-------------------------------------------------
-------------------------------------------------
-------------------------------------------------
-------------------------------------------------


VERSE1:

  A chord diagramA minorAm       A chord diagramC majorC        A chord diagramD MajorD
--------------------------2--
--------1--------1------3----
------2--------0------2------
----2--------2------0--------
--0--------3-----------------
-----------------------------

  A chord diagramG+G        A chord diagramBb majorBb       A chord diagramG+G
-----------------------------
-----------------------------
--------4--------7--------4--
------5--------8--------5----
----5--------8--------5------
--3--------6--------3--------

  A chord diagramA minorAm       A chord diagramC majorC        A chord diagramEb MajorEb
-----------------------------
--------1--------1--------8--
------2--------0--------8----
----2--------2--------8------
--0--------3--------6--------
-----------------------------

  A chord diagramBb majorBb       A chord diagramFF        A chord diagramE MajorE
-----------------------------
-----------------------------
--------7--------2--------1--
------8--------3--------2----
----8--------3--------2------
--6--------1--------0--------


VERSE2:

Guitar1: acoustic
  A chord diagramA minorAm       A chord diagramC majorC        A chord diagramD MajorD
--------------------------2--
--------1--------1------3----
------2--------0------2------
----2--------2------0--------
--0--------3-----------------
-----------------------------

  A chord diagramG+G        A chord diagramBb majorBb       A chord diagramG+G
-----------------------------
-----------------------------
--------4--------7--------4--
------5--------8--------5----
----5--------8--------5------
--3--------6--------3--------

  A chord diagramA minorAm       A chord diagramC majorC        A chord diagramEb MajorEb
-----------------------------
--------1--------1--------8--
------2--------0--------8----
----2--------2--------8------
--0--------3--------6--------
-----------------------------

  A chord diagramBb majorBb       A chord diagramFF        A chord diagramE MajorE
-----------------------------
-----------------------------
--------7--------2--------1--
------8--------3--------2----
----8--------3--------2------
--6--------1--------0--------

Guitar2: electric

------------------------------------------------
--10--12h10--12h10--12h10--12h10--12h10--12h10--
------------------------------------------------
------------------------------------------------
------------------------------------------------
------------------------------------------------

------------------------------------------------
--10--12h10--12h10--11h10--11h10--12h10--12h10--
------------------------------------------------
------------------------------------------------
------------------------------------------------
------------------------------------------------

------------------------------------------------
--10--13h10--13h10--12h10--12h10--11h10--11h10--
------------------------------------------------
------------------------------------------------
------------------------------------------------
------------------------------------------------

---------------------
--11--10--9s8s7s6s5--
---------------------
---------------------
---------------------
---------------------


ENDING:

Guitar1:acoustic

  A chord diagramA minorAm       A chord diagramG+G        A chord diagramFF        A chord diagramG+G
--------------------------------
--------1-----------------------
------2----------4--------2-----
----2----------5--------3-------repeat
--0----------5--------3---------
-----------3--------1--------3--

Guitar2: electric disto

-----------------------------------------------
------1--0--10--12h10--12h10--12h10------1--0--
----2----------------------------------2-------
--2----------------------------------2---------
-----------------------------------------------
-----------------------------------------------

------------------------------------------------
--10--12h10--12h10--12h10---1--0--10--12s13~----
--------------------------2---------------------
------------------------------------------------
------------------------------------------------
------------------------------------------------

----------------------------------------------------------
------1--0--10h12--10h12--13--13-------1--0--10h12--10h12-
----2----------------------------9---2--------------------
--2--------------------------------2----------------------
----------------------------------------------------------
----------------------------------------------------------

------------------------------
------1--0--1--10--13h10--13--
----2-------------------------
--2---------------------------
------------------------------
------------------------------

END!!!
ⓘ Guitar tab for 'A Song' by Blur, an alternative rock band formed in 1988 from London, England. Blur is known for their poignant britpop music.

Almost there ...

Sign in to get your own page with links to favourite songs and more. You are just one click away...

Login with Facebook Login with Google