Log in

One click and you are in

Login with Facebook Login with Google

Why sign up and log in

Guitar Tabs Explorer
Colin Blunstone tabs for Misty roses

Guitar tabs with lyrics

Misty Roses
Colin Blunstone

Here's the tab of this great song written by Tim Hardin and
covered by Colin Blunstone (Zombies ex-singer) in his first

solo album "One Year" published in 1971. It's just the first
part of the song because the second one is all arranged in
strings and you'll easily understand why I couldn't transcribe
it in a tab.
			   Brice Le Stunff, pzifff@6sens.com

Intro :
------------------------------------------------------
----4----------2-2------------4----------2-2----------
----3-----3----1-1-------2----3----------1-1----------
----4---4------2-2-----1------3-----3----2-2-----1----
----2----------0-----2--------2---4------0-----2------
------2------------0------------2------------0--------


Verses :
----------------------------------------------------------
----4-----------4--------2----3------2----3-3--------2----
----3------3----2------2------1------1----1-1------1------
----4----4------4----4--------0----0------0-0----0--------
----2-----------2-------------2-----------2---------------
-------2-----------2-------------0-------------0----------
  "You look to me like ...

------------------------------------------------------------
----0--------0----0--------0----0--------0----0--------0----
----1------1------1------1------0------0------0------0------
----1----1--------1----1--------0----0--------0----0--------
-------2-------------2-------------0----------0-------------
----0-------------0-------------0----------------0----------

End of verse 1 :
--------------------------------
----4--------4----4--------4----
----3------3------3------3------
----4----4--------4----4--------
----2--2----------2--2----------
--------------------------------


End of verses 2 & 3 :
--------------------------------
----4--------2----2--------0----
----3------2------2------2------
----4----4--------2----1--------
----2--2------------------------
------------------2--1----------


Chorus (after verses 2 & 3) :
------------------------------------------------------------
----0--------0----0--------0----0--------0----0-------------
----1------1------1------1------0------0------0--------0----
----1----1--------1----1--------0----0--------0------0------
-------2-------------2-------------0----------0----0--------
----0-------------0-------------0----------------0----------
  "Flowers often cry, ...

------------------------------------------------------------
----4--------4----4--------4----3------2----3-3--------2----
----3------3------3------3------1------1----1-1------1------
----4----4--------4----4--------0----0------0-0----0--------
----2--2----------2--2----------2-----------2---------------
-----------------------------------0-------------0----------


Note that there's a slight change in the 4th verse,
here it is :
----------------------------------------------------------
----4-----------2--------2----3-----------3-3-------------
----3------3----2------2------1------1----1-1----1---1----
----4----4------4----4--------0----0------0-0--0---0------
----2--2-----------2----------2-----------2---------------
----------------2----------------0-------------0----------

------------------------------------------------------------
----0--------0----0--------0----0--------0----0--------0----
----1------1------1------1------0------0------0------0------
----1----1--------1----1--------0----0--------0----0--------
---------------------2-------------0-------------0----------
----0--0----------0-------------0-------------0-------------


End of verse 4 (Outro) :
---------------------------------------
----4--------4----4---------------4----
----3------3------3------3-------3-----
----4----4--------4----4--------4------
----2--2----------2--2---------2-------
------------------------------2--------



Intro

Verse 1
End of verse 1

Verse 2
End of verse 2

Chorus

Verse 3
End of verse 3

Chorus

Verse 4
End of verse 4 (Outro)
ⓘ Guitar tab for 'Misty Roses' by Colin Blunstone, a male rock artist from Hatfield, UK. Colin Blunstone was born in 1945. Colin Blunstone is known for his excitable rock/pop music.

Almost there ...

Sign in to get your own page with links to favourite songs and more. You are just one click away...

Login with Facebook Login with Google