Log in

One click and you are in

Login with Facebook Login with Google

Why sign up and log in

Guitar Tabs Explorer
Colin Blunstone bass tabs for How wrong can one man be

How Wrong Can One Man Be bass tab by Colin Blunstone

Colin Blunstone bass tabs for How wrong can one man be

Bass tabs

Tuning: EADG

1:00

G|----------------------------------------------------------------|
D|----------------------------------------------------------------|
A|5---------------------------------------5-------5---------------|
E|--------5-------5-------5-------3-------------5---------5-------|

G|----------------------------------------------------------------|
D|----------------------------------------------------------------|
A|5-----------------------5---------------7-------------------4---|
E|--------5-------3---------------5---------------5-------7-------|

G|----------------------------------------------------------------|
D|----------------------------------------------------------------|
A|5---------------------------------------5-------5---------------|
E|--------5-------5-------5-------3-------------5---------5-------|

G|--------------------------------------------------------------------|
D|5---------------6---------------7-----------------------------------|
A|--------5---------------7-------------------------------------------|
E|----------------------------------------------------5---------------|

1:23

G|----------------------------------------------------------------|
D|4---------------5---------------6---------------7---------------|
A|----------------------------------------------------------------|
E|----------------------------------------------------------------|

G|----------------------------------------------------------------|
D|5---------------------------------------------------------------|
A|--------------------------------5-------------------------------|
E|----------------5-------------------------------5---------------|

1:32

G|----------------------------------------------------------------|
D|----------------------------------------------------------------|
A|5---------------------------------------5-------5---------------|
E|--------5-------5-------5-------3-------------5---------5-------|

G|----------------------------------------------------------------|
D|----------------------------------------------------------------|
A|5-----------------------5---------------7-------------------4---|
E|--------5-------3-----------3---5-------------5-5-----5-7-------|

G|----------------------------------------------------------------|
D|----------------------------------------------------------------|
A|5---------------------------------------5-------5---------------|
E|--------5-------5-------5-------3-------------5---------5-------|

G|----------------------------------------------------------------|
D|5---------------6-----------------7-----------------------------|
A|--------5---------------7---------------------------------------|

ⓘ Bass guitar tab for 'How Wrong Can One Man Be' by Colin Blunstone, a male rock artist from Hatfield, UK. Colin Blunstone was born in 1945. Colin Blunstone is known for his excitable rock/pop music.

Almost there ...

Sign in to get your own page with links to favourite songs and more. You are just one click away...

Login with Facebook Login with Google