Log in

One click and you are in

Login with Facebook Login with Google

Why sign up and log in

Guitar Tabs Explorer
Colin Blunstone bass tabs for Exclusively for me

Exclusively For Me bass tab by Colin Blunstone

Colin Blunstone bass tabs for Exclusively for me

Bass tabs

G|----|
D|----|
A|7---|
E|----|

G|----------------------------------------------------------------|.
D|----------------------------------------------------------------|.
A|----------------------------7-------------------------------7---|.
E|5-------------------------------5-------------------------------|.
                                  . x4
G|----------------------------------------------------------------|.
D|----------------------------------------------------------------|.
A|----------------------------7-------------------7---7-------7---|.
E|5-------------------------------7-------------------------------|.
0:56

G|----------------------------------------------------------------|
D|----------------------------------------------------------------|
A|----------------------------7-------------------------------7---|
E|5---5---------------------------5-------------------------------|

G|----------------------------------------------------------------|
D|----------------------------------------------------------------|
A|----------------------------7-------------------7---7-------7---|
E|5-------------------------------7-------------------------------|


1:10

G|----------------------------------------------------------------|
D|----------------------------------------------------------------|
A|----------------------------------------------------------------|
E|5---5-------5-------5-----------5---5-------5---------------5---|

G|----------------------------------------------------------------|
D|----------------------------------------------------------------|
A|----------------------------------------------------------------|
E|5---5-------5-------5-----------5---5-------5-------------------|

G|----------------------------------------------------------------|
D|----------------------------------------------------------------|
A|----------------------------------------------------------------|
E|5---5-------5-------------------5-------------------------------|


1:58

G|----------------------------------------------------------------|
D|7-----------9-7-6-7-6-----------5-----------7-5-4-5-4-----------|
A|----------------------------------------------------------------|
E|----------------------------------------------------------------|

G|----------------------------------------------------------------|
D|3-----------5-3-2-3-2-------------------------------------------|
A|----------------------------0---2---------0---------------------|
E|--------------------------------------------3-1-0---0-----------|

G|----------------------------------------------------------------|
D|7-----------9-7-6-7-6-----------5-----------7-5-4-5-4-----------|
A|----------------------------------------------------------------|
E|----------------------------------------------------------------|

G|----------------------------------------------------------------|
D|3-----------5-3-2-3-2-------------------------------------------|
A|----------------------------0---2---------0---------------------|

ⓘ Bass guitar tab for 'Exclusively For Me' by Colin Blunstone, a male rock artist from Hatfield, UK. Colin Blunstone was born in 1945. Colin Blunstone is known for his excitable rock/pop music.

Almost there ...

Sign in to get your own page with links to favourite songs and more. You are just one click away...

Login with Facebook Login with Google