Log in

One click and you are in

Login with Facebook Login with Google

Why sign up and log in

Guitar Tabs Explorer
The Bluetones tabs for Talking to clarrie

Guitar tabs with lyrics

TALKING TO CLARRIE
                        -----------------
                         by The Bluetones

This TAB transcription was created using TAB MASTER version 1.0
Tabbed by Frederic Maquet...f.maquet@ic.ac.uk
Intro:

   Riff 1 (probably played on bass)
e:-----------------------|
B:-----------------------|
G:-----------------------|
D:-0--0--2p0--0--0--2p0--|
A:-----------------------|
E:-----------------------|

Then play chords (with riff1):
A chord diagramD MajorD     A chord diagramDmaj7Dmaj7    A chord diagramD MajorD    A chord diagramDmaj7Dmaj7

Then play (electric, distorted): (Riff 2)

A chord diagramD MajorD    A chord diagramDsus4Dsus4 A chord diagramD MajorD   A chord diagramC majorC   A chord diagramCsus4Csus4 A chord diagramC majorC  A chord diagramBb majorBb  A chord diagramC majorC  A chord diagramD MajorD
/ / /////  /   / / /////    / / ///


then:
   Riff 3  (play fast)
e:----------------------------------------|------|
B:-------3-----------3-----------3--------|------|
G:----2-----2-----2-----2-----0-----0-----|-play-|
D:-0-----------3-----------2--------------|--x3--|
A:-------------------------------------3--|------|
E:----------------------------------------|------|

Verse:
-----
A chord diagramD MajorD                  A chord diagramDmaj7Dmaj7            Riff 4
I don't have to be feeling down, to speak with you

   Riff 4
e:-2-4-5-4---2-4-5-8-7--|
B:-3-5-6-5---3-5-6-8-8--|
G:-2-4-5-4---2-4-5-7-7--|
D:-0-0-0-0---0-0-0-0-0--|
A:----------------------|
E:----------------------|

   A chord diagramD MajorD             A chord diagramDmaj7Dmaj7         Riff 3
To visit you not only when I'm feeling blue-hoo

(Use riff 2):
A chord diagramD MajorD   A chord diagramDsus4Dsus4 A chord diagramD MajorD A chord diagramC majorC A chord diagramCsus4Csus4 A chord diagramC majorC        A chord diagramBb majorBb       A chord diagramC majorC     A chord diagramD MajorD  A chord diagramDsus4Dsus4 A chord diagramD MajorD
You make me happy when I was happy to start with
You make my life so precious and so easy to part with


Bridge
------
    A chord diagramFmaj7Fmaj7              A chord diagramD MajorD   A chord diagramDsus4Dsus4
e:--0--0---------------0-0-0-0----|
B:--1-----1-----1------2h3-2h3----|
G:--2--------2---------2-2-2-2----|
D:--3------------------0-0-0-0----|
A:--3-----------------------------|
E:--------------------------------|

PLAY RIFF 2 x2
PLAY RIFF 3 ONCE


Verse 2: (same as verse 1)
--------
Life goes on and teaches us nothing
So why am I still around waiting for something

(riff 2)
Do you have the answers to all of my questions?
Maybe not but I'd like to hear your suggestions...yeah


Bridge 2:

    Riff 5
    A chord diagramFmaj7Fmaj7                          A chord diagramE minorEm
e:--0--0-------------0-------------0--0---------0--0--------|
B:--1-----1-----1----1--1-----1----0-----0------0-----0-----|
G:--2--------2-------2-----2-------0--------0---0--------0--|
D:--3----------------3-------------2------------2-----------|
A:--3----------------3-------------2------------2-----------|
E:---------------------------------0------------0-----------|
    Talk to me                       You don't talk to mehee
    A chord diagramFmaj7Fmaj7                            A chord diagramG+G
    Talk to me                       You don't talk to me


Bridge 3:

  Riff 6
   A chord diagramC majorC        G(6)     A chord diagramC majorC        G(6)       A chord diagramG+G      D7sus2 A chord diagramE minorEm
e:---------------------------------------3------0------0---|
B:---------------------------------------3------1------0---|
G:-------0-----------------0-------------0------2------0---|
D:----2-----------0-----2-----------0----0------0------2---|
A:-3-----------2-----3-----------2-------2------0------2---|
E:----------3-----------------3----------3-------------0---|

A chord diagramC majorC         A chord diagramG6G6         A chord diagramC majorC          A chord diagramG6G6       A chord diagramG+G      D7sus2     A chord diagramE minorEm
People in corridors, people in doorways, people wherever I turn.
So many people crawl out of these shadows, so many people to learn...


(use riff2)
"And to buuuuuurrrrn, ohoo oohahahaaaa..."

solo for heap many bars...with wahwah

After x bars of solo: PLAY TWICE FAST, than once slowly (arpeggiate!)
(still using riff2)
A chord diagramD MajorD                A chord diagramC majorC      A chord diagramBb majorBb          A chord diagramC majorC        A chord diagramD MajorD
Communication is blurred, I can't understand the words
                A chord diagramD MajorD            A chord diagramC majorC
Though there's nothing to be heard
     A chord diagramBb majorBb       A chord diagramC majorC     A chord diagramD MajorD
It's all gone quite absurd

then play riff 2 loads of time and end on a D....

Chords:
A chord diagramDmaj7Dmaj7 x00222
D7sus2 x00210
A chord diagramBb majorBb    113331
A chord diagramFmaj7Fmaj7 033210
A chord diagramE minorEm    022000
A chord diagramD MajorD     x00232 or  557775
A chord diagramDsus4Dsus4 x00233     557785
A chord diagramC majorC     032010     335553
A chord diagramCsus4Csus4 032011     335563

finito.
ⓘ Guitar tab for 'Talking To Clarrie' by The Bluetones, an alternative rock band formed in 1993 from London, England. They are no longer active.

Almost there ...

Sign in to get your own page with links to favourite songs and more. You are just one click away...

Login with Facebook Login with Google