Log in

One click and you are in

Login with Facebook Login with Google

Why sign up and log in

Guitar Tabs Explorer
Blues Traveler tabs for Runaround

Guitar tabs

Title: Run-Around


hint: G2 strums to the far right of the guitar sometimes.
G2 is played softly during verse.
---------------------------|-3-------------------2--2-x-x-|-------------------|
---------------------------|-3---x-x-1-1-x-1--1--3--3-x-x-|-------------------|
---------------------------|-0---x-x-0-0-x-2--2--2--2-x-x-|-------------------|
---------------------------|-0---x-x-2-2-x-2--2--0--0-----|-------------------|
---------------------------|-----x-x-3-3-x-0--0-----------|-------------------|
---------------------------|------------------------------|-------------------|
  Intro/Verse/Chorus  G2

---------------------------|-3---------0---0-0--0--2--|-----------------------|
---------------------------|-3---x-x---1--------------|-----------------------|
---------------------------|-0---x-x---0--------------|-----------------------|
---------------------------|-0---x-x-2----------------|-----------------------|
---------------------------|-----x-x-3----------------|-----------------------|
---------------------------|--------------------------|-----------------------|

ⓘ Guitar tab for 'Runaround' by Blues Traveler, a rock band formed in 1987 from Princeton, New Jersey, USA. Blues Traveler is known for their passionate rock/pop music.

Almost there ...

Sign in to get your own page with links to favourite songs and more. You are just one click away...

Login with Facebook Login with Google