Search tabs and chords

Browse bands and artists

A B C D E F G H I J K L M N O P Q R S T U V W X Y Z #

Log in

[ Register here | Forgot password ]

Guitar Tabs Explorer
Print

Runaround bass tab by Blues Traveler Tabs

Bass tabs

There's basically 2 main riffs throughout the song

riff A
G----------5-----------7----------|
D----5-----------7----------------|
A--------3-----------5--5---------|
E--3-----------5------------------|
riff B
G---------------------------------|
D---------------------------------|
A----3-3-----5H7-7-5-0------------|
E--3---- 5--5---------------------|

Comments