Log in

One click and you are in

Login with Facebook Login with Google

Why sign up and log in

Guitar Tabs Explorer
Blues Traveler bass tabs for Price to pay

Bass tabs with lyrics

Price to Pay - Blues Traveler
------------

Bass Tab by Ryan Gay - The unbelievably attractive and superbly not-that
		    talented singer and guitarist for the wholly mediocre
		    band CGA Monitor.

mdoggie@choice.net


intro:                        verse 1:
------------------------------------------------------|-------
----------------1-2----------------------1-2----------|--2-9--
-4-3-------------------0-2-3-2------------------------|-------
-----3-2---0--------------------3-2--0----------------|-------

           (drums pick up)
---------------------|----------------------------------------
-13-14---------13-14-|-14--13-11--9---7-9-7-9-9-9-------------
---------12-14-------|----------------------------------------
---------------------|----------------------------------------

                 "she would do.."
--8--9--9--8--9-------7-9-7-----------------------------------
-----------------7--9--------9-----9-7-9-9-7-9-9--------------
--------------------------------------------------------------
--------------------------------------------------------------

 "she would do anything..."      chorus: "who was she"
---7-8--9--8--9---9----------7-9-7-----|----------------------
------------------------7-9---------9--|----------------------
---------------------------------------|----------------------
---------------------------------------|---------3---2----0---

 "to feel so free" "..heart on her sleeve" "she just couldn't
--------------------------------------------------------------
--------------------------------------------------------------
--------------------------------------------------------------
-0-2--3----2---0----0-2---3----2--2----0----0-2--3---2---2----

believe"  "There was a price to pay"  		  verse 2:
------------------------------------------------------------|-
-------------------------------------------2----------------|-
--2-----------------------------------4--2---4-2------------|-
------------------------------------------------------------|-

(same pattern repeats 6 x)

"her very first chance..."
---------------------7--8--9--8----9--9-------7-9-7-----------
--9-7-9-9-7-9-9---------------------------7-9-------9---------
--------------------------------------------------------------
--------------------------------------------------------------

"she wound up in bed..."
---------------------7--8--9--8----9--9-------7-9-7-----------
--9-7-9-9-7-9-9---------------------------7-9-------9---------
--------------------------------------------------------------
--------------------------------------------------------------

"he promised he'd return.."
---------------------7--8--9--8----9--9-------7-9-7-----------
--9-7-9-9-7-9-9---------------------------7-9-------9---------
--------------------------------------------------------------
--------------------------------------------------------------

"needless to say..."
---------------------7--8--9--8----9--9-------7-9-7-----------
--9-7-9-9-7-9-9---------------------------7-9-------9---------
--------------------------------------------------------------
--------------------------------------------------------------

"she proceeded...."
---------------------7--8--9--8----9--9-------7-9-7-----------
--9-7-9-9-7-9-9---------------------------7-9-------9---------
--------------------------------------------------------------
--------------------------------------------------------------

"and her heart began.."
---------------------7--8--9--8----9--9-------7-9-7----------|
--9-7-9-9-7-9-9---------------------------7-9-------9--------|
-------------------------------------------------------------|
-------------------------------------------------------------|


chorus: "who was she"  "to feel so free" "with her heart on
--------------------------------------------------------------
--------------------------------------------------------------
--------------------------------------------------------------
----------3--2---0----0---2---3---2----0----0--2-----3----2---

her sleeve"  "she couldn't believe" "..price to pay"
--------------------------------------------------------------|
--------------------------------------------------------2-----|
--------------------------------2-------------------4-2----4-2|
-2----0----0--2-3----2----------------------------------------|


verse 3: (just like the 2nd verse pattern, repeats 4 x)

---------------------7--8--9--8----9--9-------7-9-7-----------
--9-7-9-9-7-9-9---------------------------7-9-------9---------
--------------------------------------------------------------
--------------------------------------------------------------

---------------------7--8--9--8----9--9-------7-9-7-----------
--9-7-9-9-7-9-9---------------------------7-9-------9---------
--------------------------------------------------------------
--------------------------------------------------------------

---------------------7--8--9--8----9--9-------7-9-7-----------
--9-7-9-9-7-9-9---------------------------7-9-------9---------
--------------------------------------------------------------
--------------------------------------------------------------

---------------------7--8--9--8----9--9-------7-9-7-----------
--9-7-9-9-7-9-9---------------------------7-9-------9---------
--------------------------------------------------------------
--------------------------------------------------------------


bridge:
  (hit 5x)   (hit 5x)  (hit 10x)
 "she wanted to tear out the hair.."
--------------------------------------------------------------
--------------------------------------------------------------
---3-3-3-3-3-----5-5-5-5-5---7-7-7-7-7-7-7-7-7-7--------------
--------------------------------------------------------------

" she wanted to wish that she was dead..."
--------------------------------------------------------------
--------------------------------------------------------------
---3-3-3-3-3-----5-5-5-5-5---7-7-7-7-7-7-7-7-7-7--------------
--------------------------------------------------------------

"but a voice in her head..."
--------------------------------------------------------------
--------------------------------------------------------------
---3-3-3-3-3-----5-5-5-5-5---7-7-7-7-7-7-7-7-7-7--------------
--------------------------------------------------------------

"and her heart began to break but it didn't.."
--------------------------------------------------------------
--------------------------------------------------------------
---3-3-3-3-3-----5-5-5-5-5---7-7-7-7-7-7-7-7-7-7--------------
--------------------------------------------------------------


(guitar solo, repeat as necessary)
--------------------------------------------------------------
--------------------------------------------------------------
---3-3-3-3-3-----5-5-5-5-5---7-7-7-7-7-7-7-7-7-7--------------
--------------------------------------------------------------

(last line of guitar solo, change to this)
--------------------------------------------------------------
--------------------------------------------------------------
---3-3-3-3-3-----5-5-5-5-5---2-2-2-2-2-2-2-2-2-2--------------
--------------------------------------------------------------


bridge 2:
"run all your races and don't you fear"
--------------------------------------------------------------
---------2---2---2--------------------------------------------
--4---2--------------4---4-----4---2--------------------------
--------------------------------------------------------------

"you and I are getting out  of here"
--------------------------------------------------------------
---------2---2---2--------------------------------------------
--4---2--------------4---4-----4---2--------------------------
--------------------------------------------------------------

"and we'll survive that i guarantee"
--------------------------------------------------------------
---------2---2---2--------------------------------------------
--4---2--------------4---4-----4---2--------------------------
--------------------------------------------------------------

"cuz .....need much ..all you have is me"
--------------------------------------------------------------
---------2---2---2--------------------------------------------
--4---2--------------4-----4------4-----2---------------------
--------------------------------------------------------------

slowdown part really similar to intro:  verse 4: (just like 1st)

--------------------------------------|-----------------------
--------------------------2----1-2----|--2-9----13-14---------
------------4--4-3--------------------|-----------------12--14
--------------------3-3-2-------------|-----------------------

    (drums pick up)
------|-----------------------------------8--9--9--8--9--9----
13-14-|-14-13-11--9--7--9--7--9--9--9-------------------------
------|-------------------------------------------------------
------|-------------------------------------------------------

-------7-9-7--------------------7-8-9--9--8--9--------7-9-7---
-7--9--------9--9-7-9-9-7-9-9--------------------7--9-------9-
--------------------------------------------------------------
--------------------------------------------------------------


chorus : "who was she"  "to feel so free" "with her heart on
--------------------------------------------------------------
--------------------------------------------------------------
--------------------------------------------------------------
----------3--2---0----0---2---3---2----0----0--2-----3----2---

				   (last 4 lines, similar to bridge 1)
her sleeve"  "she couldn't believe"  		  (hit 5 x)
--------------------------------------|-----------------------
--------------------------------------|-----------------------
--------------------------------2-----|------------3-3--3-3-3-
-2----0----0--2-3----2----------------|-----------------------

 (hit 5 x)  (hit 10 x) "..to pay.."   "theres..."
--------------------------------------------------------------
--------------------------------------------------------------
-5-5-5-5-5---7-7-7-7-7-7-7-7--7--7---------3-3-3-3-3----------
--------------------------------------------------------------

"a price.."  "to pay...."        "theres..."
--------------------------------------------------------------
--------------------------------------------------------------
-5-5-5-5--5----7-7-7-7-7-7-7-7-7-7--------3-3-3-3-3-----------
--------------------------------------------------------------


"a price.."  "to pay...."        "theres..."
--------------------------------------------------------------
--------------------------------------------------------------
-5-5-5-5--5----7-7-7-7-7-7-7-7-7-7--------3-3-3-3-3-----------
--------------------------------------------------------------

        (only hit once)   outro: (exactly like slowdown
"a price.."  "to pay...."        part before verse 4)
------------------------------------|-------------------------|
------------------------------------|----------------------2--|
-5-5-5-5--5-----7-------------------|---4-4-3-----------------|
------------------------------------|-----------3-3-2---------|
ⓘ Bass guitar tab for 'Price To Pay' by Blues Traveler, a rock band formed in 1987 from Princeton, New Jersey, USA. Blues Traveler is known for their passionate rock/pop music.

Almost there ...

Sign in to get your own page with links to favourite songs and more. You are just one click away...

Login with Facebook Login with Google