Log in

One click and you are in

Login with Facebook Login with Google

Why sign up and log in

Guitar Tabs Explorer
The Blues Brothers bass tabs for Think

Bass tabs

Intro:            Verse:
(0:07)             (0:15)
G|-------------1------------| G|-----------------------------------------------------|
D|---------------3-1--------| D|----------3-1--3---------------------------3-1--3----|
A|--1--1--1--1-------4-1-1--| A|------1-----------1----1-----1------1--1-4--------1--|
E|--------------------------| E|1-1-4--------------------4-1----4-1------------------|

G|----------------------------|   G|------------------------------------|
D|------------------3-1--3----|(x4) D|----------------------3-1--1-3--3---|(x2)
A|--1-----1----1--4--------1--|   A|--1-----1------1--1-4------------1--|
E|----4-1----1----------------|   E|----4-1----4-1----------------------|

G|--------------------------------------------------------------1------------|
D|--------------------------------------1-1-1-1-1-1-1-1-----------3-1--------|
A|------1-1-1-1-1-1-1-1-4-4-4-4-4-4-4-4-----------------1-1-1-1-------4-1-1--|
E|--4-1----------------------------------------------------------------------|

G|----------------------------------------------------------1------------|
D|----------------------------------1-1-1-1-1-1-1-1-----------3-1--------|
A|--1-1-1-1-1-1-1-1-4-4-4-4-4-4-4-4-----------------1-1-1-1-------4-1-2--|
E|-----------------------------------------------------------------------|


Verse:
(1:00)
G|-------------------------------|   G|--------------------------------|
D|-------------------------------|   D|--------------------0-1-2--4----| (x4)
A|--2--2----0---0-2--2---0-------|   A|--0---0-2--2---2--2----------2--|
E|-------2----2--------2---2-----|   E|----2--------2------------------|

G|------------------------------|   G|--------------------------------------|
D|------------------0-1-2--4----|(x2) D|---------------------0-1-2--2-4--4----|(x2)
A|--2---2----2--2-2----------2--|   A|--2---0-2-2---0-2--2---------------2--|
E|----2---2---------------------|   E|----2-------2-------------------------|

G|-------------------------------------|
D|-------------------------------------|
A|----2--------------------------------|
E|--2---0-0-0-0-0-0-0-0-0-0-0-0-0-0-0--|

G|--2-------------------------------------------------------------------------------|
D|----4-2-0-------------------------------------------------------------------------|
A|-----------2-2---0-2--2---0-2--2----2--2---0-2--2----2--2---0-2--2----2--2---0-2--|
E|---------------2--------2--------2-------2--------2-------2--------2-------2------|

G|----------------------------------------------------------2------------|
D|------------------0-0-0-0-0-0-0-0-2-2-2-2-2-2-2-2-----------4-2-0------|
A|--2-2-2-2-2-2-2-4---------------------------------2-2-2-2---------2-2--|
E|-----------------------------------------------------------------------|

G|----------------------------------------------------------2------------|
D|------------------0-0-0-0-0-0-0-0-2-2-2-2-2-2-2-2-----------4-2-0------|
A|--2-2-2-2-2-2-2-4---------------------------------2-2-2-2---------2-3--|
E|-----------------------------------------------------------------------|

Verse:
(2:03)
G|-------------------------------|   G|---------------------------0----|
D|-------------------------------|   D|--------------------1-2-3-------|
A|--3--3----1---1-3--3---1-------|   A|--1---1-3--3---3--3----------3--|
E|-------3----3--------3---3-----|   E|----3--------3------------------|

G|---------------0-------------0-----------------------------0-------------|
D|------------3--------2--3----------------------------1-2-3---------------|
A|--1---1-3-------3--------------3--3---1-3--3---3--3----------3--3---1-3--|
E|----3-------------------------------3--------3--------------------3------|

G|----0-----------0----------------------------------------|
D|--3---------3-3---3---------3-3-3-3-3-3-3-3-3-3-3-3-3-3--|
A|------3--3-----------3---3-------------------------------|
E|-----------------------3---------------------------------|

G|--3-0-----------------------------------------------------------------------------|
D|------3-1-------------------------------------------------------------------------|
A|-----------3-3---1-3--3---1-3--3--+-3--3---1-3--3----3--3---1-3--3----3--3---1-3--|
E|---------------3--------3--------3-------3--------3-------3--------3-------3------|

G|----------------------------------------------------------------------|
D|----------------------------------------------------------------------|
A|--3----3---3---1-3--3---1-3--3---1-3--3----3---3---1-3--3----3---1-3--|
E|----3--------3--------3--------3--------3--------3--------3----3------|

G|------------------------------0---------------------------------------------------|
D|------------------------2--3-----------------------5/7-5--7-5---------------------|
A|--3-1-3-1-3-1-3-----1-3----------3-1-3-1-3-----1-3------------3------1-3-----1-3--|
E|----------------1-3------------------------1-3-------------------1-3-----1-3------|

G|-----------------------------------------------------------------------------------|
D|-----------------------------------------------------------------------------------|
A|--2-3-2-3-----1-3-------3-----1-3-----3-----1-3-----3-----1-3-----3-----1-3-----3--|
E|----------1-3------2-3----1-3-----2-3---1-3-----2-3---1-3-----2-3---1-3-----2-3----|

G|-------------------------------------------------|
D|-------------------------2-3-4-5-7-8-7-8-9-10----|
A|------1-3-----1-3--1--3-----------------------3--|
E|--1-3-----2-3------------------------------------|


************************************

| / Slide up
| (x
|) D
| +
| A
| D
| E
| G

Almost there ...

Sign in to get your own page with links to favourite songs and more. You are just one click away...

Login with Facebook Login with Google