Log in

One click and you are in

Login with Facebook Login with Google

Why sign up and log in

Guitar Tabs Explorer
The Blues Brothers tabs for Soul man

Guitar tabs

Intro:
|--------------------------------7-7v------9-11/1|---|
|---------9h--9--9-7-7hv-----------------------------|
|----------------------------------------------------|
|----------------------------5/7--7----7/9--9--------|
|-----7/9--------------------------------------------|
|----------------------------------------------------|
Verse:(this i a harmony type thing but if u want, you can play just the e string)
|-----0--0--4-4-4-4--2--0---------|
|-----0--0--5-5-5-5--2--0---------|
|---------------------------------|
|---------------------------| <---|play this 8 times, then play the chorus
|---------------------------------|
|---------------------------------|


Chorus:
|------------0h--0h---3-2-0--3-2-0-0h---------0h--0h---10-10-10-12v-12hv-------------|
|-----0--2---------------------------------0--2--------------------------------------|
|------------------------------------------------------------------------------------|
|------------------------------------------------------------------------------------|
|------------------------------------------------------------------------------------|
|------------------------------------------------------------------------------------|

Chorus cont'd:(the end here is shaky, so if u think it's wrong fix it and tell me!)
|------------0h--0h---3-2-0--3-2-0-0h--------------0h--0h---------------------|
|-----0--2--------------------------------------0--2-------------------1-0----|
|--------------------------------------------------------------------3--------|
|-----------------------------------------------------------------4-----------|
|-----------------------------------------------------------------------------|
|-----------------------------------------------------------------------------|
The third chorus starts different:
|------------0h--0h---3-2-0--3-2-0-0h---------0h--0h---10/12-12-12v-12hv-------------|
|-----0--2---------------------------------0--2--------------------------------------|
|------------------------------------------------------------------------------------|
|------------------------------------------------------------------------------------|
|------------------------------------------------------------------------------------|
|------------------------------------------------------------------------------------|
then finishes as normal, but then, after third chorus you play(w/quick picking):
|-----4-4-4-4---|
|---------------|
|---------------|
|---------------|
|---------------|
|---------------| times 4, then:

|-----2-2-2-2---|
|---------------|
|---------------|
|---------------|
|---------------|
|---------------| times 4, then:

|-----3-3-3-3---|
|---------------|
|---------------|
|---------------|
|---------------|
|---------------| times 4, then:

|-----5-5-5-5---|
|---------------|
|---------------|
|---------------|
|---------------|
|---------------| times 4, then:

|-----1-1-1-1--|
|--------------|
|--------------|
|--------------|
|--------------|
|--------------| times 4, then replay the intro and then just play the verse part
                 thru to the end!
Have fun!
Tabbed by Brick

Almost there ...

Sign in to get your own page with links to favourite songs and more. You are just one click away...

Login with Facebook Login with Google