Log in

One click and you are in

Login with Facebook Login with Google

Why sign up and log in

Guitar Tabs Explorer
The Blues Brothers bass tabs for Shake your tailfeather

Shake Your Tailfeather bass tab by The Blues Brothers

The Blues Brothers bass tabs for Shake your tailfeather

Bass tabs

Blues Brothers - Shake Your Tail Feather basstab

TablEdited by Jan Bjorklund  <jani_bjorklund@yahoo.se>
You are welcome to request for tabs!
Fingering and positions as suggested by TablEdit, please use common sense.
TablEdited by Jan.Bjorklund

Tuning : E A D G 	Time Signature: 4/4

 |    |    |    |    |    |    |    |
|--------------------------------|--------------------------------|
|--------------------------------|0---0---------------------------|
|----0---0---0---0---0---0---0---|------------0---2---0-------0---|
|--------------------------------|--------2---------------2-------|

 |    |    |    |    |    |    |    |
|--------------------------------|--------------------------------|
|------------0---2---0-------0---|0---0---------------------------|
|--------2---------------2-------|------------0---2---0-------0---|
|3---3---------------------------|--------2---------------2-------|

 |    |    |    |    |    |    |    |
|--------------------------------|--------------------------------|
|------------0---2---0-------0---|0---0---------------------------|
|--------2---------------2-------|------------0---2---0-------0---|
|3---3---------------------------|--------2---------------3-------|

 |    |    |    |    |    |    |    |
|--------------------------------|--------------------------------|
|--------0---0---4---4---0---0---|--------------------------------|
|2---2---------------------------|----------------2---2-------2---|
|--------------------------------|0---0---4---4-----------4-------|

 |    |    |    |    |    |    |    |
|--------------------------------|--------------------------------|
|--------------------------------|--------------------------------|
|0---0---0---0---0---0---0---0---|0---0---0---0---0---0---0---0---|
|--------------------------------|--------------------------------|

 |    |    |    |    |    |    |    |
|--------------------------------|--------------------------------|
|--------------------------------|--------------------------------|
|0---0---0---0---0---0---0---0---|0---0---0---0---0---0---0---0---|
|--------------------------------|--------------------------------|

 |    |    |    |    |    |    |    |
|--------------------------------|--------------------------------|
|--------------------------------|--------------------------------|
|0---0---0---0---0---0---0---0---|0---0---0---0---0---0---0---0---|
|--------------------------------|--------------------------------|

 |    |    |    |    |    |    |    |
|--------------------------------|--------------------------------|
|--------------------------------|--------------------------------|
|0---0---0---0---0---0---0---0---|0---0---0---0---0---0---0---0---|
|--------------------------------|--------------------------------|

 |    |    |    |    |    |    |    |
|--------------------------------|--------------------------------|
|--------------------------------|--------------------------------|
|0---0---0---0---0---0---0---0---|0---0---2---2---3---3---4---4---|
|--------------------------------|--------------------------------|

 |    |    |    |    |    |    |    |
|--------------------------------|--------------------------------|
|0---0---------------------------|------------0---2---0-------0---|
|------------0---2---0-------0---|--------2---------------2-------|
|--------2---------------2-------|3---3---------------------------|

 |    |    |    |    |    |    |    |
|--------------------------------|--------------------------------|
|0---0---------------------------|--------------------------------|
|------------0---2---0-------0---|----0---0---0---0---0---0-------|
|--------2---------------2-------|----------------------------4---|

 |    |    |    |    |    |    |    |
|--------------------------------|--------------------------------|
|------------0---2---0-------0---|------------0---2---0-------0---|
|--------2---------------2-------|--------2---------------2-------|
|3---3---------------------------|3---3---------------------------|

 |    |    |    |    |    |    |    |
|--------------------------------|--------------------------------|
|0---0---------------------------|0---0---------------------------|
|------------0---2---0-------0---|--------------------------------|
|--------2---------------2-------|--------0---0---1---1---2---2---|

 |    |    |    |    |    |    |    |
|--------------------------------|--------------------------------|
|------------0---2---0-------0---|------------0---2---0-------0---|
|--------2---------------2-------|--------2---------------2-------|
|3---3---------------------------|3---3---------------------------|

 |    |    |    |    |    |    |    |
|--------------------------------|--------------------------------|
|--------------------------------|--------------------------------|
|0---0---0---0---0---0---0---0---|0---0---0---0---0---0---0---0---|
|--------------------------------|--------------------------------|

 |    |    |    |    |    |    |    |
|--------------------------------|--------------------------------|
|--------------------------------|--------------------------------|
|0---0---0---0---0---0---0---0---|0---0---0---0---0---0---0---0---|
|--------------------------------|--------------------------------|

 |    |    |    |    |    |    |    |
|--------------------------------|--------------------------------|
|--------------------------------|--------------------------------|
|0---0---0---0---0---0---0---0---|0---0---0---0---0---0---0---0---|
|--------------------------------|--------------------------------|

 |    |    |    |    |    |    |    |
|--------------------------------|--------------------------------|
|--------------------------------|--------------------------------|
|0---0---0---0---0---0---0---0---|0---0---0---0---0---0---0---0---|
|--------------------------------|--------------------------------|

 |    |    |    |    |    |    |    |
|--------------------------------|--------------------------------|
|--------------------------------|--------------------------------|
|0---0---0---0---0---0---0---0---|0---0---2---2---3---3---4---4---|
|--------------------------------|--------------------------------|

 |    |    |    |    |    |    |    |
|--------------------------------|--------------------------------|
|0---0---------------------------|------------0---2---0-------0---|
|------------0---2---0-------0---|--------2---------------2-------|
|--------2---------------2-------|3---3---------------------------|

 |    |    |    |    |    |    |    |
|--------------------------------|--------------------------------|
|0---0---------------------------|--------------------------------|
|------------0---2---0-------0---|----0---0---0---0---0---0-------|
|--------2---------------2-------|----------------------------4---|

 |    |    |    |    |    |    |    |
|--------------------------------|--------------------------------|
|------------0---2---0-------0---|------------0---2---0-------0---|
|--------2---------------2-------|--------2---------------2-------|
|3---3---------------------------|3---3---------------------------|

 |    |    |    |    |    |    |    |
|--------------------------------|--------------------------------|
|0---0---------------------------|0---0---------------------------|
|------------0---2---0-------0---|--------------------------------|
|--------2---------------2-------|--------0---0---1---1---2---2---|

 |    |    |    |    |    |    |    |
|--------------------------------|--------------------------------|
|------------0---2---0-------0---|------------0---2---0-------0---|
|--------2---------------2-------|--------2---------------2-------|
|3---3---------------------------|3---3---------------------------|

 |    |    |    |    |    |    |    |
|--------------------------------|--------------------------------|
|--------------------------------|--------------------------------|
|0---0---0---0---0---0---0---0---|0---0---0---0---0---0---0---0---|
|--------------------------------|--------------------------------|

 |    |    |    |    |    |    |    |
|--------------------------------|--------------------------------|
|--------------------------------|--------------------------------|
|0---0---0---0---0---0---0---0---|0---0---0---0---0---0---0---0---|
|--------------------------------|--------------------------------|

 |    |    |    |    |    |    |    |
|--------------------------------|--------------------------------|
|--------------------------------|--------------------------------|
|0---0---0---0---0---0---0---0---|0---0---0---0---0---0---0---0---|
|--------------------------------|--------------------------------|

 |    |    |    |    |    |    |    |
|--------------------------------|--------------------------------|
|--------------------------------|--------------------------------|
|0---0---0---0---0---0---0---0---|0---0---0---0---0---0---0---0---|
|--------------------------------|--------------------------------|

 |    |    |    |    |    |    |    |
|--------------------------------|--------------------------------|
|--------------------------------|--------------------------------|
|0---0---0---0---0---0---0---0---|0---0---2---2---3---3---4---4---|
|--------------------------------|--------------------------------|

 |    |    |    |    |    |    |    |
|--------------------------------|--------------------------------|
|0---0---------------------------|------------0---2---0-------0---|
|------------0---2---0-------0---|--------2---------------2-------|
|--------2---------------2-------|3---3---------------------------|

 |    |    |    |    |    |    |    |
|--------------------------------|--------------------------------|
|0---0---------------------------|------------0---2---0-------0---|
|------------0---2---0-------0---|--------2---------------2-------|
|--------2---------------2-------|3---3---------------------------|

 |    |    |    |    |    |    |    |
|--------------------------------|--------------------------------|
|0---0---------------------------|------------0---2---0-------0---|
|------------0---2---0-------0---|--------2---------------2-------|
|--------2---------------2-------|3---3---------------------------|

 |    |    |    |    |    |    |    |
|--------------------------------|--------------------------------|
|0---0---------------------------|------------0---2---0-------0---|
|------------0---2---0-------0---|--------2---------------2-------|
|--------2---------------2-------|3---3---------------------------|

 |    |    |    |    |    |    |    |
|--------------------------------|--------------------------------|
|0---0---------------------------|------------0---2---0-------0---|
|------------0---2---0-------0---|--------2---------------2-------|
|--------2---------------2-------|3---3---------------------------|

 |    |    |    |    |    |    |    |
|--------------------------------|--------------------------------|
|0---0---------------------------|------------0---2---0-------0---|
|------------0---2---0-------0---|--------2---------------2-------|
|--------2---------------2-------|3---3---------------------------|

 |    |    |    |    |    |    |    |
|--------------------------------|--------------------------------|
|0---0---------------------------|------------0---2---0-------0---|
|------------0---2---0-------0---|--------2---------------2-------|
|--------2---------------2-------|3---3---------------------------|

 |    |    |    |    |    |    |    |
|--------------------------------|--------------------------------|
|0---0---------------------------|------------0---2---0-------0---|
|------------0---2---0-------0---|--------2---------------2-------|
|--------2---------------2-------|3---3---------------------------|

 |    |    |    |    |    |    |    |
|--------------------------------|--------------------------------|
|0---0---------------------------|------------0---2---0-------0---|
|------------0---2---0-------0---|--------2---------------2-------|
|--------2---------------2-------|3---3---------------------------|

 |    |    |    |    |    |    |    |
|--------------------------------|--------------------------------|
|0---0---------------------------|------------0---2---0-------0---|
|------------0---2---0-------0---|--------2---------------2-------|
|--------2---------------2-------|3---3---------------------------|

 |    |    |    |    |    |    |    |
|--------------------------------|--------------------------------|
|0---0---------------------------|------------0---2---0-------0---|
|------------0---2---0-------0---|--------2---------------2-------|
|--------2---------------2-------|3---3---------------------------|

 |    |    |    |    |    |    |    |
|--------------------------------|--------------------------------|
|0---0---------------------------|------------0---2---0-------0---|
|------------0---2---0-------0---|--------2---------------2-------|
|--------2---------------2-------|3---3---------------------------|

 |    |    |    |    |    |    |    |
|--------------------------------|--------------------------------|
|0---0---------------------------|------------0---2---0-------0---|
|------------0---2---0-------0---|--------2---------------2-------|
|--------2---------------2-------|3---3---------------------------|

 |    |    |    |    |    |    |    |
|--------------------------------|--------------------------------|
|0---0---------------------------|------------0---2---0-------0---|
|------------0---2---0-------0---|--------2---------------2-------|
|--------2---------------2-------|3---3---------------------------|

 |    |    |    |    |    |    |    |
|--------------------------------|--------------------------------|
|0---0---------------------------|------------0---2---0-------0---|
|------------0---2---0-------0---|--------2---------------2-------|
|--------2---------------2-------|3---3---------------------------|

 |    |    |    |    |    |    |    |
|--------------------------------|--------------------------------|
|0---0---------------------------|------------0---2---0-------0---|
|------------0---2---0-------0---|--------2---------------2-------|
|--------2---------------2-------|3---3---------------------------|

 |    |    |    |    |    |    |    |
|--------------------------------|--------------------------------|
|--------------------------------|--------------------------------|
|0---0---0---0---0---0---0---0---|0---0---2---2---3---3---4---4---|
|--------------------------------|--------------------------------|

 |    |    |    |    |    |    |    |
|--------------------------------|--------------------------------|
|0---0---------------------------|------------0---2---0-------0---|
|------------0---2---0-------0---|--------2---------------2-------|
|--------2---------------2-------|3---3---------------------------|

 |    |    |    |    |    |    |    |
|--------------------------------|--------------------------------|
|0---0---------------------------|--------------------------------|
|------------0---2---0-------0---|----0---0---0---0---0---0-------|
|--------2---------------2-------|----------------------------4---|

 |    |    |    |    |    |    |    |
|--------------------------------|--------------------------------|
|------------0---2---0-------0---|------------0---2---0-------0---|
|--------2---------------2-------|--------2---------------2-------|
|3---3---------------------------|3---3---------------------------|

 |    |    |    |    |    |    |    |
|--------------------------------|--------------------------------|
|0---0---------------------------|0---0---------------------------|
|------------0---2---0-------0---|--------------------------------|
|--------2---------------2-------|--------0---0---1---1---2---2---|

 |    |    |    |    |    |    |    |
|--------------------------------|--------------------------------|
|------------0---2---0-------0---|------------0---2---0-------0---|
|--------2---------------2-------|--------2---------------2-------|
|3---3---------------------------|3---3---------------------------|

 |    |    |    |    |    |    |    |
|--------------------------------|--------------------------------|
|--------------------------------|--------------------------------|
|0---0---0---0---0---0---0---0---|0---0---0---0---0---0---0---0---|
|--------------------------------|--------------------------------|

 |    |    |    |    |    |    |    |
|--------------------------------|--------------------------------|
|--------------------------------|--------------------------------|
|0---0---0---0---0---0---0---0---|0---0---0---0---0---0---0---0---|
|--------------------------------|--------------------------------|

 |    |    |    |    |    |    |    |
|--------------------------------|--------------------------------|
|--------------------------------|--------------------------------|
|0---0---0---0---0---0---0---0---|0---0---0---0---0---0---0---0---|
|--------------------------------|--------------------------------|

 |    |    |    |    |    |    |    |
|--------------------------------|--------------------------------|
|--------------------------------|--------------------------------|
|0---0---0---0---0---0---0---0---|0---0---0---0---0---0---0---0---|
|--------------------------------|--------------------------------|

 |    |    |    |    |    |    |    |
|--------------------------------|--------------------------------|
|--------------------------------|--------------------------------|
|0---0---0---0---0---0---0---0---|0---0---2---2---3---3---4---4---|
|--------------------------------|--------------------------------|

Almost there ...

Sign in to get your own page with links to favourite songs and more. You are just one click away...

Login with Facebook Login with Google