Log in

One click and you are in

Login with Facebook Login with Google

Why sign up and log in

Guitar Tabs Explorer
The Blues Brothers bass tabs for Shake a tail feather

Shake A Tail Feather bass tab by The Blues Brothers

The Blues Brothers bass tabs for Shake a tail feather

Bass tabs

Tuning: Standard (E A D G)

Difficulty: Intermediate

0:17 Couplet
G|-----------------------------------------7-9-7---7-|
D|-7-7-7-7-7-7-7---------7-9-7---7-------9-------9---|
A|---------------------9-------9---10-10-------------|
E|---------------10-10-------------------------------|

G|---------------------------7-9-7---7-----------------------------------------------|
D|---------7-9-7---7-------9-------9-----------7-9-7---7-9-9--9--9-9-9-------------7-|
A|-------9-------9---10-10-------------------9-------9-----------------7-7-7--7--7---|
E|-10-10-------------------------------10-10-----------------------------------------|

G|-------------------------------|   G|-----------------------------------|
D|-7-7-7-7-7-7-7-7-7-7-7-7-7-7-7-| x4 D|-7-7-7-7-7-7-7-7-7-7---------------|
A|-------------------------------|   A|---------------------10-10-9-9-7-7-|
E|-------------------------------|   E|-----------------------------------|

0:45 Refrain
G|---------------------------7-9-7---7-----------------------------------------7-9-7---|
D|---------7-9-7---7-------9-------9-----------7-9-7---7-7-7-7-7-7-7-7-------9-------9-|
A|-------9-------9---10-10-------------------9-------9-----------------10-10-----------|
E|-10-10-------------------------------10-10-------------------------------------------|

G|-----------7-9-7-----------------------------------------------7-9-7-----------7-9-7---|
D|-7-------9-------9-----------7-9-7-----------7-9-7---9-------9-------9-------9-------7-|
A|---10-10-----------7-------9-------9-------9-------9---10-10-----------10-10-----------|
E|---------------------10-10-----------10-10---------------------------------------------|

G|-------------------------------|   G|-----------------------------------|
D|-7-7-7-7-7-7-7-7-7-7-7-7-7-7-7-| x4 D|-7-7-7-7-7-7-7-7-7-7---------------|
A|-------------------------------|   A|---------------------10-10-9-9-7-7-|
E|-------------------------------|   E|-----------------------------------|

1:15 Refrain
G|---------------------------7-9-7---7-----------------------------------------7-9-7---|
D|---------7-9-7---7-------9-------9-----------7-9-7---7-7-7-7-7-7-7-7-------9-------9-|
A|-------9-------9---10-10-------------------9-------9-----------------10-10-----------|
E|-10-10-------------------------------10-10-------------------------------------------|

G|-----------7-9-7-----------------------------------------------7-9-7-----------7-9-7---|
D|-7-------9-------9-----------7-9-7-----------7-9-7---9-------9-------9-------9-------7-|
A|---10-10-----------7-------9-------9-------9-------9---10-10-----------10-10-----------|
E|---------------------10-10-----------10-10---------------------------------------------|

G|-------------------------------|
D|-7-7-7-7-7-7-7-7-7-7-7-7-7-7-7-| x3
A|-------------------------------|
E|-------------------------------|

G|---------------------------------------------------------|
D|---------------------7-7-7-7-----------7-7---------------|
A|---------------7-9-7------------7--9-7-----10-10-9-9-7-7-|
E|-5--5-5-9--9-9--------------5-9--------------------------|

1:46 Final
G|---------------------------7-9-7---7---------------------------7-9-7---7-|
D|---------7-9-7---7-------9-------9-----------7-9-7---7-------9-------9---| x8
A|-------9-------9---10-10-------------------9-------9---10-10-------------|
E|-10-10-------------------------------10-10-------------------------------|

G|------------------------------------------------------|
D|-7-7-7-7-7-7-7-7-7------------------------------------|
A|-------------------10-10-9-9-7-7----7-8-9-10-8-7------|
E|---------------------------------10--------------10-8-|

Almost there ...

Sign in to get your own page with links to favourite songs and more. You are just one click away...

Login with Facebook Login with Google