Log in

One click and you are in

Login with Facebook Login with Google

Why sign up and log in

Guitar Tabs Explorer
The Blues Brothers tabs for Rawhide

Guitar tabs with lyrics

"Rawhide" - Blues Bros soundtrack.

Tabbed by Dan Ferris (dan_eff@yahoo.com)

Got this straight off the Blue Bros Soundtrack.
Chords shapes are at the end. The solo is a bit rough
but in the ballpark.

A chord diagramA minorAm			A chord diagramA minorAm
Rollin' rollin' rollin'.......
A chord diagramA minorAm			A chord diagramA minorAm
rollin' rollin' rollin'.......
A chord diagramA minorAm
Rawhide
[Riff, ^= microbend up]

e------------------------------
B---------------5-5-5^-5-------
G---2-2-2^-2-------------------
D------------------------------
A------------------------------
E------------------------------

A chord diagramA minorAm			A chord diagramC majorC
Rollin' rollin' rollin' ...
A chord diagramE MajorE			      A chord diagramE7E7
Keep them dawgies rollin' rawhide
A chord diagramA minorAm			  A chord diagramFF
Rain and wind and weather ....
A chord diagramG+G			 A chord diagramE MajorE
Wishin' my gal was by my side.
A chord diagramA minorAm  			    A chord diagramFF
All the things I'm missin', ....
    A chord diagramG+G			     A chord diagramA minorAm
Are waiting at the end of my ride.

A chord diagramA minorAm		       A chord diagramA minorAm
Move em on (hit em up) Hit em up (move em on)....
A chord diagramA minorAm                     A chord diagramE MajorE
Move em on (hit em up) rawhide
A chord diagramE MajorE                       A chord diagramE MajorE
Cut em out (ride em in) Ride em in (cut em out)
	                   A chord diagramA minorAm
(cut em out) Ride em in Rawhide

[Key change: Move all the chords up a semitone: A chord diagramA minorAm to
A chord diagramBbmBbm]

A chord diagramBbmBbm			   A chord diagramDbDb
Keep movin' movin' movin'.....
A chord diagramFF			  A chord diagramF7F7
Keep them dawgies movin'.....
A chord diagramBbmBbm			    A chord diagramGbGb
Don't try to understand em.....
A chord diagramAbAb			      A chord diagramFF
Soon we'll be living high and wide.
A chord diagramBbmBbm			   A chord diagramGbGb
My heart's calculating, my.....
A chord diagramAbAb                          A chord diagramBbmBbm
Be waiting at the end of my ride.

A chord diagramBbmBbm		       A chord diagramBbmBbm
Move em on (hit em up) Hit em up (move em on)
                          A chord diagramFF
Move em on (hit em up) rawhide
A chord diagramFF                       A chord diagramFF
Cut em out (ride em in) Ride em in (cut em out)
	                   A chord diagramBbmBbm
(cut em out) Ride em in Rawhide


[Solo:]

🏷Legend:

h = hammer on
v = vibrato
> = slide up string to next note
^ = microbend (approximately 1/4 tone)

e---------------------------------------------------------------------
B---------------------------------------------------------------------
G--3-h5-h6--3-h5-h6--3-h5-h6--3v----6-h8-h10--6-h8-h10--6-h8-h10--10v-
D---------------------------------------------------------------------
A---------------------------------------------------------------------
E---------------------------------------------------------------------


e---------------------------------------------------------------------
B---------------------------------------------------------------------
G----10-h12-h13--10-h12-h13--10-h12-h13--10-10-h13-13v----------------
D---------------------------------------------------------------------
A---------------------------------------------------------------------
E---------------------------------------------------------------------


e---------------------------------------------------------------------
B-11-11v--11-11-9-----------------------------------------------------
G-------------------10v------6-8^-8^-8^-8^-8-6-6v---------------------
D-------------------------8-------------------------------------------
A---------------------------------------------------------------------
E---------------------------------------------------------------------


e---------------------------------------------------------------------
B---------------------------------------------------------------------
G------6-8^-6-8^-6-8>10-8v--8-8-6-------------------------------------
D---8------------------------------8-8-6-8v---------------------------
A---------------------------------------------------------------------
E---------------------------------------------------------------------


Theme from the TV show Rawhide . . . Thankyou.


************************************************
Chords used:

First verse
Am:  xx2210	C: x32010	E:  022100
F:   133211	G: 355433	E7: 020100

Second verse
Bbm: x13321	Db: 143121	F:  133211
Gb:  244322    Ab: 466544	F7: 131211

************************************************

Other versions of Rawhide

Rawhide soloTabs

Almost there ...

Sign in to get your own page with links to favourite songs and more. You are just one click away...

Login with Facebook Login with Google