Log in

One click and you are in

Login with Facebook Login with Google

Why sign up and log in

Guitar Tabs Explorer
The Blues Brothers bass tabs for Peter gun theme

Peter Gun Theme bass tab by The Blues Brothers

The Blues Brothers bass tabs for Peter gun theme

Bass tabs

Blues Brothers - Peter Gun Theme basstab

TablEdited by Jan Bjorklund  <jani_bjorklund@yahoo.se>
You are welcome to request for tabs!
Fingering and positions as suggested by TablEdit, please use common sense.
TablEdited by Jan.Bjorklund

Tuning : E A D G 	Time Signature: 2/2

 |        |        |        |
|----------------0-------1-------|3---2-----------0-------1-------|
|--------3-----------------------|--------3-----------------------|
|--------------------------------|--------------------------------|
|--------------------------------|--------------------------------|

 |        |        |        |
|3---2-----------0-------1-------|3---2-----------0-------1-------|
|--------3-----------------------|--------3-----------------------|
|--------------------------------|--------------------------------|
|--------------------------------|--------------------------------|

 |        |        |        |
|3---2-----------0-------1-------|3---2-----------0-------1-------|
|--------3-----------------------|--------3-----------------------|
|--------------------------------|--------------------------------|
|--------------------------------|--------------------------------|

 |        |        |        |
|3---2-----------0-------1-------|3---2-----------0-------1-------|
|--------3-----------------------|--------3-----------------------|
|--------------------------------|--------------------------------|
|--------------------------------|--------------------------------|

 |        |        |        |
|3---2-----------0-------1-------|3---2-----------0-------1-------|
|--------3-----------------------|--------3-----------------------|
|--------------------------------|--------------------------------|
|--------------------------------|--------------------------------|

 |        |        |        |
|3---2-----------0-------1-------|3---2-----------0-------1-------|
|--------3-----------------------|--------3-----------------------|
|--------------------------------|--------------------------------|
|--------------------------------|--------------------------------|

 |        |        |        |
|3---2-----------0-------1-------|3---2-----------0-------1-------|
|--------3-----------------------|--------3-----------------------|
|--------------------------------|--------------------------------|
|--------------------------------|--------------------------------|

 |        |        |        |
|3---2-----------0-------1-------|3---2-----------0-------1-------|
|--------3-----------------------|--------3-----------------------|
|--------------------------------|--------------------------------|
|--------------------------------|--------------------------------|

 |        |        |        |
|3---2-----------0-------1-------|3---2-----------0-------1-------|
|--------3-----------------------|--------3-----------------------|
|--------------------------------|--------------------------------|
|--------------------------------|--------------------------------|

 |        |        |        |
|3---2-----------0-------1-------|3---2-----------0-------1-------|
|--------3-----------------------|--------3-----------------------|
|--------------------------------|--------------------------------|
|--------------------------------|--------------------------------|

 |        |        |        |
|3---2---------------------------|--------------------------------|
|--------------------------------|--------------------------------|
|--------------------------------|--------------------------------|
|--------------------------------|--------------------------------|

 |        |        |        |
|--------------------------------|--------------------------------|
|--------------------------------|--------3---3---3---3---3---3---|
|--------------------------------|--------------------------------|
|--------------------------------|--------------------------------|

 |        |        |        |
|----------------0-------1-------|3---2-----------0-------1-------|
|3---3---3-----------------------|--------3-----------------------|
|--------------------------------|--------------------------------|
|--------------------------------|--------------------------------|

 |        |        |        |
|3---2-----------0-------1-------|3---2-----------0-------1-------|
|--------3-----------------------|--------3-----------------------|
|--------------------------------|--------------------------------|
|--------------------------------|--------------------------------|

 |        |        |        |
|3---2-----------0-------1-------|3---2-----------0-------1-------|
|--------3-----------------------|--------3-----------------------|
|--------------------------------|--------------------------------|
|--------------------------------|--------------------------------|

 |        |        |        |
|3---2-----------0-------1-------|3---2-----------0-------1-------|
|--------3-----------------------|--------3-----------------------|
|--------------------------------|--------------------------------|
|--------------------------------|--------------------------------|

 |        |        |        |
|3---2-----------0-------1-------|3---2-----------0-------1-------|
|--------3-----------------------|--------3-----------------------|
|--------------------------------|--------------------------------|
|--------------------------------|--------------------------------|

 |        |        |        |
|3---2-----------0-------1-------|3---2-----------0-------1-------|
|--------3-----------------------|--------3-----------------------|
|--------------------------------|--------------------------------|
|--------------------------------|--------------------------------|

 |        |        |        |
|3---2-----------0-------1-------|3---2-----------0-------1-------|
|--------3-----------------------|--------3-----------------------|
|--------------------------------|--------------------------------|
|--------------------------------|--------------------------------|

 |        |        |        |
|3---2-----------0-------1-------|3---2-----------0-------1-------|
|--------3-----------------------|--------3-----------------------|
|--------------------------------|--------------------------------|
|--------------------------------|--------------------------------|

 |        |        |        |
|3---2-----------0-------1-------|3---2-----------0-------1-------|
|--------3-----------------------|--------3-----------------------|
|--------------------------------|--------------------------------|
|--------------------------------|--------------------------------|

 |        |        |        |
|3---2-----------0-------1-------|3---2-----------0-------1-------|
|--------3-----------------------|--------3-----------------------|
|--------------------------------|--------------------------------|
|--------------------------------|--------------------------------|

 |        |        |        |
|3---2-----------0-------1-------|3---2-----------0-------1-------|
|--------3-----------------------|--------3-----------------------|
|--------------------------------|--------------------------------|
|--------------------------------|--------------------------------|

 |        |        |        |
|3---2-----------0-------1-------|3---2-----------0-------1-------|
|--------3-----------------------|--------3-----------------------|
|--------------------------------|--------------------------------|
|--------------------------------|--------------------------------|

 |        |        |        |
|3---2-----------0-------1-------|3---2-----------0-------1-------|
|--------3-----------------------|--------3-----------------------|
|--------------------------------|--------------------------------|
|--------------------------------|--------------------------------|

 |        |        |        |
|3---2-----------0-------1-------|3---2-----------0-------1-------|
|--------3-----------------------|--------3-----------------------|
|--------------------------------|--------------------------------|
|--------------------------------|--------------------------------|

 |        |        |        |
|3---2-----------0-------1-------|3---2-----------0-------1-------|
|--------3-----------------------|--------3-----------------------|
|--------------------------------|--------------------------------|
|--------------------------------|--------------------------------|

 |        |        |        |
|3---2-----------0-------1-------|3---2-----------0-------1-------|
|--------3-----------------------|--------3-----------------------|
|--------------------------------|--------------------------------|
|--------------------------------|--------------------------------|

 |        |        |        |
|3---2-----------0-------1-------|3---2-----------0-------1-------|
|--------3-----------------------|--------3-----------------------|
|--------------------------------|--------------------------------|
|--------------------------------|--------------------------------|

 |        |        |        |
|3---2---------------------------|--------------------------------|
|--------------------------------|--------------------------------|
|--------------------------------|--------------------------------|
|--------2-------2-------2-------|2-------2-------2-------2-------|

 |        |
|--------------------------------|
|--------------------------------|
|--------------------------------|
|2---1---------------------------|

Almost there ...

Sign in to get your own page with links to favourite songs and more. You are just one click away...

Login with Facebook Login with Google