Log in

One click and you are in

Login with Facebook Login with Google

Why sign up and log in

Guitar Tabs Explorer
The Blues Brothers bass tabs for Old landmark

Bass tabs

Old Landmark
(James Brown) Blues Brothers
TablEdited by Poppamies

Tuning : E A D G 	Time Signature: 4/4

 tempo 150    |    |    |    |    |    |
|--------------------------------|0---------------0---------------|
|--------------------0---3---4---|----0---3---4-------0---3---4---|
|--------------------------------|--------------------------------|
|--------------------------------|--------------------------------|

 |    |    |    |    |    |    |    |
|0---------------------------0---|--------------------------------|
|------------0-----------0-------|--------------------------------|
|----2---3-----------2-----------|3-------1---2---3---------------|
|----------------3---------------|----3---------------0---1---2---|

 |    |    |    |    |    |    |    |
|--------------------------------|0---------------0---------------|
|----------------0---2---3---4---|----0---3---4-------0---3---4---|
|----2---3---4-------------------|--------------------------------|
|3-------------------------------|--------------------------------|

 |    |    |    |    |    |    |    |
|0-------------------------------|--------------------------------|
|----3---2---0-----------0-------|----------------0-------0-------|
|--------------------2-------3---|2-------2---3-------------------|
|----------------3---------------|----2---------------3-------3---|

 |    |    |    |    |    |    |    |
|--------------------------------|0-------------------------------|
|----------------0---1---2---4---|----------------0---2---3---4---|
|----2---3---4-------------------|----2---3---4-------------------|
|3-------------------------------|--------------------------------|

 |    |    |    |    |    |    |    |
|0-------------------------------|--------------------------------|
|------------0-----------0-------|--------------------------------|
|----2---3-----------2-------4---|3-------------------2---3---4---|
|----------------3---------------|----0---1---2---3---------------|

 |    |    |    |    |    |    |    |
|0-------------------------------|0-------------------------------|
|----------------0---2---3---4---|----------------0---2---3---4---|
|----2---3---4-------------------|----2---3---4-------------------|
|--------------------------------|--------------------------------|

 |    |    |    |    |    |    |    |
|0-------------------------------|--------------------------------|
|----3---2---0-----------0-------|----------------0-------0-------|
|--------------------2-------3---|2---2---3---4---------------4---|
|----------------3---------------|--------------------3-----------|

 |    |    |    |    |    |    |    |
|--------------------------------|--------------------------------|
|----------------0---------------|----------------0---------------|
|2---2---3---4---------------4---|2---2---3---4-------------------|
|--------------------0---3-------|--------------------0---3---4---|

 |    |    |    |    |    |    |    |
|--------------------------------|0---------------0---------------|
|----------------0---2---3---4---|----0---2---4-------0---3---4---|
|----2---3---4-------------------|--------------------------------|
|3-------------------------------|--------------------------------|

 |    |    |    |    |    |    |    |
|0-------------------------------|--------------------------------|
|----3---2---0-----------0-------|--------------------------------|
|--------------------2-------4---|3-------1---2---3---------------|
|----------------3---------------|----3---------------0---1---2---|

 |    |    |    |    | and so|on... |    |
|--------------------------------|--------------------------------|
|----------------0---2---3---4---|--------------------------------|
|----2---3---4-------------------|--------------------------------|
|3-------------------------------|--------------------------------|


http://www.geocities.com/jani_bjorklund/janis.html 1058405404377

Almost there ...

Sign in to get your own page with links to favourite songs and more. You are just one click away...

Login with Facebook Login with Google