Log in

One click and you are in

Login with Facebook Login with Google

Why sign up and log in

Guitar Tabs Explorer
The Blues Brothers bass tabs for Hey bartender

Hey Bartender bass tab by The Blues Brothers

The Blues Brothers bass tabs for Hey bartender

Bass tabs

Tuning: Standard (E A D G)

Difficulty: Novice

0:00 Couplet
G|---------------0---------------------------------------------------|
D|----------1------1-------------------------------------------------|
A|---1-3--3---3------3----1-3--3-1-0-----0-3-1-0---0-1-2-3-3-3---1-3-|
E|-3--------------------3------------3-1---------1-------------3-----|

G|---------------------------------------|
D|---------------------------------------|
A|---------2-5-2---0-1-2-3---------------|
E|-0-1-2-3-------1---------0-1-2-3-0-1-3-|

0:25 Couplet
G|---------------0---------------------------------------------------|
D|----------1------1-------------------------------------------------|
A|---1-3--3---3------3----1-3--3-1-0-----0-3-1-0---0-1-2-3-3-3---1-3-|
E|-3--------------------3------------3-1---------1-------------3-----|

G|---------------------------------------|
D|---------------------------------------|
A|---------2-5-2---0-1-2-3---------------|
E|-0-1-2-3-------1---------0-1-2-3-0-1-3-|

0:52 Pont
G|---------------0---------------------------------------------------|
D|----------1------1-------------------------------------------------|
A|---1-3--3---3------3----1-3--3-1-0-----0-3-1-0---0-1-2-3-3-3---1-3-|
E|-3--------------------3------------3-1---------1-------------3-----|

G|---------------------------------------|
D|---------------------------------------|
A|---------2-5-2---0-1-2-3---------------|
E|-0-1-2-3-------1---------0-1-2-3-0-1-3-|

1:17
G|---------------0---------------------------------------------------|
D|----------1------1-------------------------------------------------|
A|---1-3--3---3------3----1-3--3-1-0-----0-3-1-0---0-1-2-3-3-3---1-3-|
E|-3--------------------3------------3-1---------1-------------3-----|

G|---------------------------------------|
D|---------------------------------------|
A|---------2-5-2---0-1-2-3---------------|
E|-0-1-2-3-------1---------0-1-2-3-0-1-3-|

1:43 Couplet
G|---------------0---------------------------------------------------|
D|----------1------1-------------------------------------------------|
A|---1-3--3---3------3----1-3--3-1-0-----0-3-1-0---0-1-2-3-3-3---1-3-|
E|-3--------------------3------------3-1---------1-------------3-----|

G|---------------------------------0-0-0---------------|
D|-------------------------0-2-2-3-------3-3-2-2-0-0---|
A|---------2-5-2---0-1-2-3---------------------------3-|
E|-0-1-2-3-------1-------------------------------------|

2:09 Couplet
G|-----------------------------------------------------|
D|-----------------------------------------------------|
A|-3-1-0---3-1-0---3-1-0---3-1-0---3-1-0---3-1-0---3/0-|
E|-------3-------3-------3-------3-------3-------3-----|

G|-------------------------------------------------------------------------------------|
D|-------------------------------------------------------------------------------------|
A|---0-3-1-0---0-1-2-3-3-3---1-3-3-3------0-3-1-0---0-1-2-3-3-3---1-3------------------|
E|-1---------1-------------3---------3--1---------1-------------3-----0-1-2--3--3-1----|

G|---------------|
D|---------------|
A|---------0-2-3-|
E|-0-1-2-3-------|


/ Slide

Almost there ...

Sign in to get your own page with links to favourite songs and more. You are just one click away...

Login with Facebook Login with Google