Log in

One click and you are in

Login with Facebook Login with Google

Why sign up and log in

Guitar Tabs Explorer
The Blues Brothers bass tabs for Going back to miami

Going Back To Miami bass tab by The Blues Brothers

The Blues Brothers bass tabs for Going back to miami

Bass tabs

Tuning : E A D G 	Time Signature: 4/4

 |    |    |    |    |    |    |    |
|--------------------------------|--------------------------------|
|5-5-5-5-5-5-5-5-5-5-5-5-5-5-5-5-|5-5---5-5-5---5-5-5---5-5-5-----|
|--------------------------------|--------------------------------|
|--------------------------------|--------------------------------|

 |    |    |    |    |    |    |    |
|--------------------------------|--------------------------------|
|5-5-5-5-5-5-5-5-5-5-5-5-5-5-5-5-|5-5---5-5-5---5-5-5---5-5-5-----|
|--------------------------------|--------------------------------|
|--------------------------------|--------------------------------|

 |    |    |    |    |    |    |    |
|--------------------------------|--------------------------------|
|5-5-5-5-5-5-5-5-5-5-5-5-5-5-5-5-|5-5-5-5-5-5-5-5-5-5-5-5-5-5-5-5-|
|--------------------------------|--------------------------------|
|--------------------------------|--------------------------------|

 |    |    |    |    |    |    |    |
|--------------------------------|--------------------------------|
|--...and so on for awhile...----|5-5-5-5-5-5-5-5-5---------------|
|------------until---------------|--------------------7---8---9---|
|--------------------------------|--------------------------------|

 |    |    |    |    |    |    |    |
|--------------------------------|--------------------------------|
|5-5-5-5-5-5-5-5-5-5-5-5-5-5-5-5-|5-5-5-5-5-5-5-5-5-5-5-5-5-5-5-5-|
|--------------------------------|--------------------------------|
|--------------------------------|--------------------------------|

 |    |    |    |    |    |    |    |
|--------------------------------|--------------------------------|
|5-5-5-5-5-5-5-5-5-5-5-5-5-5-5-5-|5-5-5-5-5-5-5-5-5---------------|
|--------------------------------|--------------------------------|
|--------------------------------|--------------------------------|

 |    |    |    |    |    |    |    |
|--------------------------------|--------------------------------|
|5-----5-------------------------|5-----5-------------------------|
|--5-7-----7-5-7---5-7-8---7-5-7-|--5-7-----7-5-7---5-7-8---7-5-7-|
|--------------------------------|--------------------------------|

 |    |    |    |    |    |    |    |
|--------------------------------|--------------------------------|
|5-----5---------5---------------|5-----5---------5---------------|
|--5-7-----7-5-7---5-7-8---7-5-7-|--5-7-----7-5-7---5-7-8---7-5-7-|
|--------------------------------|--------------------------------|

 |    |    |    |    |    |    |    |
|--------------------------------|--------------------------------|
|--this keeps going on until-----|----------------------5---------|
|--------------------------------|--------------5-7-5-------7-5---|
|--------------------------------|--------------------------------|

 |    |    |    |    |    |    |    |
|--------------------------------|--------------------------------|
|--------------------------------|-----------drum solo------------|
|--------------------------------|--------------------------------|
|--6-7---3-----------------------|--------------------------------|

 |    |    |    |    |    |    |    |
|--------------------------------|----2-2-3-3-4-4-5-5-6-6-7---9---|
|5-5-----------------2-2-3-3-4-4-|5-5-----------------------------|
|----2-2-3-3-4-4-5-5-------------|--------------------------------|
|--------------------------------|--------------------------------|

 |    |    |    |    |    |    |    |
|--------------------------------|--------------------------------|
|5-----5---------5---------------|5-----5---------5---------------|
|--5-7-----7-5-7---5-7-8---7-5-7-|--5-7-----7-5-7---5-7-8---7-5-7-|
|--------------------------------|--------------------------------|
    ... until the end...

Almost there ...

Sign in to get your own page with links to favourite songs and more. You are just one click away...

Login with Facebook Login with Google