Log in

One click and you are in

Login with Facebook Login with Google

Why sign up and log in

Guitar Tabs Explorer
The Blues Brothers bass tabs for Gimme some lovin

Bass tabs

Blues Brothers - Gimme some lovin basstab

TablEdited by Jan Bjorklund  <jani_bjorklund@yahoo.se>
You are welcome to request for tabs!
Fingering and positions as suggested by TablEdit, please use common sense.
TablEdited by Jan.Bjorklund

Tuning : E A D G 	Time Signature: 4/4

 |    |    |    |    |    |    |    |
|--------------------------------|--------------------------------|
|--------------------------------|2---2---2---2---2---------------|
|--------------------------------|--------------------------------|
|--------------------------------|------------------------0-------|

 |    |    |    |    |    |    |    |
|--------------------------------|--------------------------------|
|2---2---2---2---2---------------|2---2---2---2---2---------------|
|--------------------------------|--------------------------------|
|------------------------0-------|------------------------0-------|

 |    |    |    |    |    |    |    |
|--------------------------------|--------------------------------|
|2---2---2---2---2---------------|2---2---2---2---2---------------|
|--------------------------------|--------------------------------|
|------------------------0-------|------------------------0-------|

 |    |    |    |    |    |    |    |
|--------------------------------|--------------------------------|
|2---2---2---2---2---------------|2---2---2---2---2---------------|
|--------------------------------|--------------------------------|
|------------------------0-------|------------------------0-------|

 |    |    |    |    |    |    |    |
|--------------------------------|--------------------------------|
|2---2---2---2---2---------------|2---2---2---2---2---------------|
|--------------------------------|--------------------------------|
|------------------------0-------|------------------------0-------|

 |    |    |    |    |    |    |    |
|--------------------------------|--------------------------------|
|2---2---2---2---2---------------|2---2---2---2---2---------------|
|--------------------------------|--------------------------------|
|------------------------0-------|------------------------0-------|

 |    |    |    |    |    |    |    |
|--------------------------------|--------------------------------|
|2---2---2---2---2---------------|2---2---2---2---2---------------|
|--------------------------------|--------------------------------|
|------------------------0-------|------------------------0-------|

 |    |    |    |    |    |    |    |
|--------------------------------|--------------------------------|
|2---2---2---2---2---------------|2---2---2---2---2---------------|
|--------------------------------|--------------------------------|
|------------------------0-------|------------------------0-------|

 |    |    |    |    |    |    |    |
|--------------------------------|--------------------------------|
|2---2---2---2---2---------------|2---2---2---2---2---------------|
|--------------------------------|--------------------------------|
|------------------------0-------|------------------------0-------|

 |    |    |    |    |    |    |    |
|--------------------------------|--------------------------------|
|2---2---2---2---2---------------|2---2---2---2---2---------------|
|--------------------------------|--------------------------------|
|------------------------0-------|------------------------0-------|

 |    |    |    |    |    |    |    |
|--------------------------------|--------------------------------|
|2---2---2---2---2---------------|2---2---2---2---2---------------|
|--------------------------------|--------------------------------|
|------------------------0-------|------------------------0-------|

 |    |    |    |    |    |    |    |
|--------------------------------|----------------------------0---|
|2---2---2---2---2---------------|2---2---2---2---2---2---2-------|
|--------------------------------|--------------------------------|
|------------------------0-------|--------------------------------|

 |    |    |    |    |    |    |    |
|0---0---0---0---0---0---0---0---|2---2---2---2---2---2---2---5---|
|--------------------------------|--------------------------------|
|--------------------------------|--------------------------------|
|--------------------------------|--------------------------------|

 |    |    |    |    |    |    |    |
|5---5---5---5---5---5---5---5---|--------------------------------|
|--------------------------------|2---2---2---2---2---------------|
|--------------------------------|--------------------------------|
|--------------------------------|------------------------0-------|

 |    |    |    |    |    |    |    |
|--------------------------------|--------------------------------|
|2---2---2---2---2---------------|2---2---2---2---2---------------|
|--------------------------------|--------------------------------|
|------------------------0-------|------------------------0-------|

 |    |    |    |    |    |    |    |
|--------------------------------|--------------------------------|
|2---2---2---2---2---------------|2---2---2---2---2---------------|
|--------------------------------|--------------------------------|
|------------------------0-------|------------------------0-------|

 |    |    |    |    |    |    |    |
|--------------------------------|--------------------------------|
|2---2---2---2---2---------------|2---2---2---2---2---------------|
|--------------------------------|--------------------------------|
|------------------------0-------|------------------------0-------|

 |    |    |    |    |    |    |    |
|--------------------------------|--------------------------------|
|2---2---2---2---2---------------|2---2---2---2---2---------------|
|--------------------------------|--------------------------------|
|------------------------0-------|------------------------0-------|

 |    |    |    |    |    |    |    |
|--------------------------------|--------------------------------|
|2---2---2---2---2---------------|2---2---2---2---2---------------|
|--------------------------------|--------------------------------|
|------------------------0-------|------------------------0-------|

 |    |    |    |    |    |    |    |
|--------------------------------|--------------------------------|
|2---2---2---2---2---------------|2---2---2---2---2---------------|
|--------------------------------|--------------------------------|
|------------------------0-------|------------------------0-------|

 |    |    |    |    |    |    |    |
|--------------------------------|--------------------------------|
|2---2---2---2---2---------------|2---2---2---2---2---------------|
|--------------------------------|--------------------------------|
|------------------------0-------|------------------------0-------|

 |    |    |    |    |    |    |    |
|--------------------------------|--------------------------------|
|2---2---2---2---2---------------|2---2---2---2---2---------------|
|--------------------------------|--------------------------------|
|------------------------0-------|------------------------0-------|

 |    |    |    |    |    |    |    |
|--------------------------------|--------------------------------|
|2---2---2---2---2---------------|2---0---2---0---2---------------|
|--------------------------------|--------------------------------|
|------------------------0-------|------------------------0-------|

 |    |    |    |    |    |    |    |
|--------------------------------|--------------------------------|
|2---0---2---0---2-------0---1---|2---0---2---0---2---------------|
|--------------------4-----------|--------------------------------|
|--------------------------------|------------------------0-------|

 |    |    |    |    |    |    |    |
|--------------------------------|--------------------------------|
|2---0---2---0---2-------0---1---|2---0---2---0---2---------------|
|--------------------4-----------|--------------------------------|
|--------------------------------|------------------------0-------|

 |    |    |    |    |    |    |    |
|--------------------------------|--------------------------------|
|2---0---2---0---2-------0---1---|2---0---2---0---2---------------|
|--------------------4-----------|--------------------------------|
|--------------------------------|------------------------0-------|

 |    |    |    |    |    |    |    |
|--------------------------------|----------------------------0---|
|2---0---2---0---2-------0---1---|2---2---2---2---2---2---2-------|
|--------------------4-----------|--------------------------------|
|--------------------------------|--------------------------------|

 |    |    |    |    |    |    |    |
|0---0---0---0---0---0---0---0---|2---2---2---2---2---2---2---5---|
|--------------------------------|--------------------------------|
|--------------------------------|--------------------------------|
|--------------------------------|--------------------------------|

 |    |    |    |    |    |    |    |
|5---5---5---5---5---5---5---5---|--------------------------------|
|--------------------------------|2---2---2---2---2---------------|
|--------------------------------|--------------------------------|
|--------------------------------|------------------------0-------|

 |    |    |    |    |    |    |    |
|--------------------------------|--------------------------------|
|2---2---2---2---2---------------|2---2---2---2---2---------------|
|--------------------------------|--------------------------------|
|------------------------0-------|------------------------0-------|

 |    |    |    |    |    |    |    |
|--------------------------------|--------------------------------|
|2---2---2---2---2---------------|2---2---2---2---2---------------|
|--------------------------------|--------------------------------|
|------------------------0-------|------------------------0-------|

 |    |    |    |    |    |    |    |
|--------------------------------|--------------------------------|
|2---2---2---2---2---------------|2---2---2---2---2---------------|
|--------------------------------|--------------------------------|
|------------------------0-------|------------------------0-------|

 |    |    |    |    |    |    |    |
|--------------------------------|--------------------------------|
|2---2---2---2---2---------------|2---2---2---2---2---------------|
|--------------------------------|--------------------------------|
|------------------------0-------|------------------------0-------|

 |    |    |    |    |    |    |    |
|--------------------------------|--------------------------------|
|2---2---2---2---2---------------|2---2---2---2---2---------------|
|--------------------------------|--------------------------------|
|------------------------0-------|------------------------0-------|

 |    |    |    |    |    |    |    |
|--------------------------------|--------------------------------|
|2---2---2---2---2---------------|2---2---2---2---2---------------|
|--------------------------------|--------------------------------|
|------------------------0-------|------------------------0-------|

 |    |    |    |    |    |    |    |
|--------------------------------|--------------------------------|
|2---2---2---2---2---------------|2---2---2---2---2---------------|
|--------------------------------|--------------------------------|
|------------------------0-------|------------------------0-------|

 |    |    |    |    |    |    |    |
|--------------------------------|--------------------------------|
|2---2---2---2---2---------------|2---2---2---2---2---------------|
|--------------------------------|--------------------------------|
|------------------------0-------|------------------------0-------|

 |    |    |    |    |    |    |    |
|--------------------------------|--------------------------------|
|2---2---2---2---2---------------|2---0---2---0---2---------------|
|--------------------------------|--------------------------------|
|------------------------0-------|------------------------0-------|

 |    |    |    |    |    |    |    |
|--------------------------------|--------------------------------|
|2---0---2---0---2-------0---1---|2---0---2---0---2---------------|
|--------------------4-----------|--------------------------------|
|--------------------------------|------------------------0-------|

 |    |    |    |    |    |    |    |
|--------------------------------|--------------------------------|
|2---0---2---0---2-------0---1---|2---0---2---0---2---------------|
|--------------------4-----------|--------------------------------|
|--------------------------------|------------------------0-------|

 |    |    |    |    |    |    |    |
|--------------------------------|--------------------------------|
|2---0---2---0---2-------0---1---|2---0---2---0---2---------------|
|--------------------4-----------|--------------------------------|
|--------------------------------|------------------------0-------|

 |    |    |    |    |    |    |    |
|--------------------------------|----------------------------0---|
|2---0---2---0---2-------0---1---|2---2---2---2---2---2---2-------|
|--------------------4-----------|--------------------------------|
|--------------------------------|--------------------------------|

 |    |    |    |    |    |    |    |
|0---0---0---0---0---0---0---0---|2---2---2---2---2---2---2---5---|
|--------------------------------|--------------------------------|
|--------------------------------|--------------------------------|
|--------------------------------|--------------------------------|

 |    |    |    |    |    |    |    |
|5---5---5---5---5---5---5---5---|--------------------------------|
|--------------------------------|2---2---2---2---2---------------|
|--------------------------------|--------------------------------|
|--------------------------------|------------------------0-------|

 |    |    |    |    |    |    |    |
|--------------------------------|--------------------------------|
|2---2---2---2---2---------------|2---2---2---2---2---------------|
|--------------------------------|--------------------------------|
|------------------------0-------|------------------------0-------|

 |    |    |    |    |    |    |    |
|--------------------------------|--------------------------------|
|2---2---2---2---2---------------|2---2---2---2---2---------------|
|--------------------------------|--------------------------------|
|------------------------0-------|------------------------0-------|

 |    |    |    |    |    |    |    |
|--------------------------------|--------------------------------|
|2---2---2---2---2---------------|2---2---2---2---2---------------|
|--------------------------------|--------------------------------|
|------------------------0-------|------------------------0-------|

 |    |    |    |    |    |    |    |
|--------------------------------|--------------------------------|
|2---2---2---2---2---------------|2---2---2---2---2---------------|
|--------------------------------|--------------------------------|
|------------------------0-------|------------------------0-------|

 |    |    |    |    |    |    |    |
|--------------------------------|--------------------------------|
|2---2---2---2---2---------------|2---2---2---2---2---------------|
|--------------------------------|--------------------------------|
|------------------------0-------|------------------------0-------|

 |    |    |    |    |    |    |    |
|--------------------------------|--------------------------------|
|2---2---2---2---2---------------|2---2---2---2---2---------------|
|--------------------------------|--------------------------------|
|------------------------0-------|------------------------0-------|

 |    |    |    |    |    |    |    |
|--------------------------------|--------------------------------|
|2---2---2---2---2---------------|2---2---2---2---2---------------|
|--------------------------------|--------------------------------|
|------------------------0-------|------------------------0-------|

 |    |    |    |
|--------------------------------|
|2---2---2---2---2---------------|
|--------------------------------|
|------------------------0-------|

Other versions of Gimme Some Lovin

Gimme some lovin (Ver. 2)Bass tabs

Almost there ...

Sign in to get your own page with links to favourite songs and more. You are just one click away...

Login with Facebook Login with Google