Log in

One click and you are in

Login with Facebook Login with Google

Why sign up and log in

Guitar Tabs Explorer
The Blues Brothers bass tabs for Gimme some lovin (Ver. 2)

Gimme Some Lovin bass tab by The Blues Brothers (Ver. 2)

The Blues Brothers bass tabs for Gimme some lovin (Ver. 2)

Bass tabs

Tuning: Standard (E A D G)

0:00 Intro:
G|-------------------------------------------------|   G|-------------------------|
D|-2-2-2-2-2---2-2-2-2-2---2-2-2-2-2---2-2-2-2-2---|X3  D|-2-2-2-2-2---2-2-2-2-2---|
A|-------------------------------------------------|   A|-------------------------|
E|-----------0-----------0-----------0-----------0-|   E|-----------0-----------0-|

0:22 Couplet:
G|-------------------------------------------------|
D|-2-2-2-2-2---2-2-2-2-2---2-2-2-2-2---2-2-2-2-2---|X2
A|-------------------------------------------------|
E|-----------0-----------0-----------0-----------0-|

G|-----------------------------------------------5---5--5------|
D|-2-2-2-2-2-2-2-5-5-5-5-5-5-5-5-7-7-7-7-7-7-7-------------0-1-|
A|---------------------------------------------3---3---3-------|
E|-------------------------------------------------------------|

G|-------------------------------------------------|  G|------------------------|
D|-2-2-2-2-2---2-2-2-2-2---2-2-2-2-2---2-2-2-2-2---|X4 D|-2-0-2--2---2-2-2-2-2---|
A|-------------------------------------------------|  A|------------------------|
E|-----------0-----------0-----------0-----------0-|  E|----------0-----------0-|

1:13 Couplet:
G|-------------------------------|
D|-2-0-2-0-2---2-0-2-0-2-0---0-1-|X4
A|-------------------------2-----|
E|-----------0-------------------|

G|-----------------------------------------------5---5--5------|
D|-2-2-2-2-2-2-2-5-5-5-5-5-5-5-5-7-7-7-7-7-7-7-------------0-1-|
A|---------------------------------------------3---3---3-------|
E|-------------------------------------------------------------|

G|-------------------------------------------------|   G|-------------------------|
D|-2-2-2-2-2---2-2-2-2-2---2-2-2-2-2---2-2-2-2-2---|X4  D|-2-2-2-2-2---2-2-2-2-2---|
A|-------------------------------------------------|   A|-------------------------|
E|-----------0-----------0-----------0-----------0-|   E|-----------0-----------0-|

2:03 Couplet:
G|-------------------------------|
D|-2-0-2-0-2---2-0-2-0-2-0---0-1-|X4
A|-------------------------2-----|
E|-----------0-------------------|

G|-----------------------------------------------5---5--5------|
D|-2-2-2-2-2-2-2-5-5-5-5-5-5-5-5-7-7-7-7-7-7-7-------------0-1-|
A|---------------------------------------------3---3---3-------|
E|-------------------------------------------------------------|

G|--------------------------------------------------------------------------|
D|-2-2-2-2-2---2-2-2-2-2---2-2-2-2-2---2-2-2-2-2----2-2-2-2-2---2-2-2-2-2---|
A|--------------------------------------------------------------------------|
E|-----------0-----------0-----------0-----------0------------0-----------0-|

G|--------------------------------------------------------------|
D|-2-2-2-2-2---2-2-2-2-2---2-2-2-2-2---2-2-2-2-2----2-2-2-2-2---|
A|--------------------------------------------------------------|
E|-----------0-----------0-----------0-----------0------------0-|

G|-------------------------------------------------|
D|-------------------------------------------------|
A|-------------------------------------------------|
E|--0--0--0--0--0--0--0--0--0--0--0--0--0--0--0--0-|

Other versions of Gimme Some Lovin

Gimme some lovinBass tabs

Almost there ...

Sign in to get your own page with links to favourite songs and more. You are just one click away...

Login with Facebook Login with Google