Log in

One click and you are in

Login with Facebook Login with Google

Why sign up and log in

Guitar Tabs Explorer
The Blues Brothers bass tabs for Flip flop and fly

Flip Flop And Fly bass tab by The Blues Brothers

The Blues Brothers bass tabs for Flip flop and fly

Bass tabs

Tuning : E A D G 	Time Signature: 4/4

 |    |    |    |    |    |    |    |
|--------------------------------|--------------------------------|
|--------------------------------|--------------------------------|
|------3/5-------8-------6-------|--------5-------8-------6p5-----|
|6-------------------------------|6-------------------------------|

 |    |    |    |    |    |    |    |
|--------------------------------|--------------------------------|
|--------------------------------|--------------------------------|
|--------5-------8-------6-------|--------5-------8-------6-------|
|6-------------------------------|6-------------------------------|

 |    |    |    |    |    |    |    |
|--------------------------------|--------------------------------|
|--------------------------------|--------------------------------|
|--------5-------8-------6-------|--------5-------8-------6-------|
|6-------------------------------|6-------------------------------|

 |    |    |    |    |    |    |    |
|--------------------------------|--------------------------------|
|--------------------------------|--------------------------------|
|--------5-------8-------6-------|--------5-------8-------6-------|
|6-------------------------------|6-------------------------------|

 |    |    |    |    |    |    |    |
|--------------------------------|--------------------------------|
|--------5-------8-------6p5-----|--------5-------8-------6-------|
|6-------------------------------|6-------------------------------|
|--------------------------------|--------------------------------|

 |    |    |    |    |    |    |    |
|--------------------------------|--------------------------------|
|--------------------------------|--------------------------------|
|--------5-------8-------6-------|--------5-------8-------6-------|
|6-------------------------------|6-------------------------------|

 |    |    |    |    |    |    |    |
|--------------------------------|--------------------------------|
|--------------------------------|--------------------------------|
|--------5-------6-------7-------|8-----8-6-------5---------------|
|8-------------------------------|------------------------8-------|

 |    |    |    |    |    |    |    |
|--------------------------------|--------------------------------|
|--------------------------------|--------------------------------|
|--------5-------6-------7-------|8-----8-6-------5---------------|
|6-----6-------------------------|------------------------8-------|

 |    |    |    |    |    |    |    |
|--------------------------------|--------------------------------|
|--------------------------------|--------------------------------|
|--------5-----5-8-----8-5-------|--------5-----5-8-----8-5-------|
|6-----6-----------------------8-|6-----6-----------------------8-|

 |    |    |    |    |    |    |    |
|--------------------------------|--------------------------------|
|--------------------------------|--------------------------------|
|--------5-----5-8-----8-5-------|--------5-----5-8-----8-5-----8-|
|6-----6-----------------------8-|6-----6-------------------------|

 |    |    |    |    |    |    |    |
|--------------------------------|--------------------------------|
|--------5-----5-8-----8-5-------|--------5-----5-8-----8-5-------|
|6-----6-----------------------8-|6-----6-----------------------8-|
|--------------------------------|--------------------------------|

 |    |    |    |    |    |    |    |
|--------------------------------|--------------------------------|
|--------------------------------|--------------------------------|
|--------5-----5-8-----8-5-------|--------5-----5-8-----8-5-------|
|6-----6-----------------------8-|6-----6-----------------------8-|

 |    |    |    |    |    |    |    |
|--------------------------------|--------------------------------|
|--------------------------------|--------------------------------|
|--------5-------6-------7-------|8-----8-6-------5---------------|
|8-------------------------------|------------------------8-------|

 |    |    |    |    |    |    |    |
|--------------------------------|--------------------------------|
|--------------------------------|--------------------------------|
|--------5-----5-6-----6-7-------|8-----8-6-------5---------------|
|6-----6-------------------------|------------------------8-------|

 |    |    |    |    |    |    |    |
|--------------------------------|--------------------------------|
|--------------------------------|--------------------------------|
|--------------------------------|--------------------------------|
|6-----6-1-------3-------5-------|6-------1-------3-------5-------|

 |    |    |    |    |    |    |    |
|--------------------------------|--------------------------------|
|--------------------------------|--------------------------------|
|--------------------------------|------------------------5-------|
|6-------1-------3-------5-------|6-----6-6-------8---------------|

 |    |    |    |    |    |    |    |
|--------------------------------|--------------------------------|
|--------------------------------|--------------------------------|
|6-----------------------5-------|6-----6-5-----------------------|
|--------6-------8---------------|----------------8-------5-------|

 |    |    |    |    |    |    |    |
|--------------------------------|--------------------------------|
|--------------------------------|--------------------------------|
|--------------------------------|--------------------------------|
|6-------1-------3-------5-------|6-------5-------6-------7-------|

 |    |    |    |    |    |    |    |
|--------------------------------|--------------------------------|
|--------------------------------|--------------------------------|
|--------5-------6-------7-------|8-----8-6-------5---------------|
|8-------------------------------|------------------------8-------|

 |    |    |    |    |    |    |    |
|--------------------------------|--------------------------------|
|--------------------------------|--------------------------------|
|--------5-------6-------7-------|8-----8-6-------5---------------|
|6-------------------------------|------------------------8-------|

 |    |    |    |    |    |    |    |
|--------------------------------|--------------------------------|
|--------------------------------|--------------------------------|
|--------5-----5-8-----8-5-------|--------5-----5-8-------5-------|
|6-----6-------------------------|6-----6-------------------------|

 |    |    |    |    |    |    |    |
|--------------------------------|--------------------------------|
|--------------------------------|--------------------------------|
|--------5-----5-8-----8-5-------|--------5-----5-8-----8-5-------|
|6-----6-------------------------|6-----6-------------------------|

 |    |    |    |    |    |    |    |
|--------------------------------|--------------------------------|
|--------5-----5-8-------5-------|--------5-----5-8-----8-5-------|
|6-----6-------------------------|6-----6-------------------------|
|--------------------------------|--------------------------------|

 |    |    |    |    |    |    |    |
|--------------------------------|--------------------------------|
|--------------------------------|--------------------------------|
|--------5-----5-8-----8-5-------|--------5-----5-8-----8-5-------|
|6-----6-------------------------|6-----6-------------------------|

 |    |    |    |    |    |    |    |
|--------------------------------|--------------------------------|
|--------------------------------|--------------------------------|
|--------5-----5-6-----6-7-------|8-----8-6-----6-5-----5---------|
|8-----8-------------------------|------------------------8-------|

 |    |    |    |    |    |    |    |
|--------------------------------|--------------------------------|
|--------------------------------|--------------------------------|
|--------5-----5-6-----6-7-------|8-----8-6-----6-5-----5---------|
|6-----6-------------------------|------------------------8-------|

 |    |    |    |    |    |    |    |
|--------------------------------|--------------------------------|
|--------------------------------|--------------------------------|
|--------5-----5-8-----8-5-------|--------5-----5-8-----8-5-------|
|6-----6-------------------------|6-----6-------------------------|

 |    |    |    |    |    |    |    |
|--------------------------------|--------------------------------|
|--------------------------------|--------------------------------|
|--------5-----5-8-----8-5-------|--------5-----5-8-----8-5-------|
|6-----6-------------------------|6-----6-------------------------|

 |    |    |    |    |    |    |    |
|--------------------------------|--------------------------------|
|--------5-----5-8-----8-5-------|--------5-----5-8-------5/3-----|
|6-----6-------------------------|6-----6-------------------------|
|--------------------------------|--------------------------------|

 |    |    |    |    |    |    |    |
|--------------------------------|--------------------------------|
|--------------------------------|--------------------------------|
|--------5-----5-8-----8-5-------|--------5-----5-8-----8-5-------|
|6-----6-------------------------|6-----6-------------------------|

 |    |    |    |    |    |    |    |
|--------------------------------|--------------------------------|
|--------------------------------|--------------------------------|
|--------5-------6-------7-------|8-----8-6-------5---------------|
|8-------------------------------|------------------------8-------|

 |    |    |    |    |    |    |    |
|--------------------------------|--------------------------------|
|--------------------------------|--------------------------------|
|--------5-------6-------7-------|8-----8-6-------5---------------|
|6-------------------------------|------------------------8-------|

 |    |    |    |    |    |    |    |
|--------------------------------|--------------------------------|
|--------------------------------|--------------------------------|
|--------------------------------|--------------------------------|
|6-------1-------3-------5-------|6-------1-------3-------5-------|

 |    |    |    |    |    |    |    |
|--------------------------------|--------------------------------|
|--------------------------------|--------------------------------|
|--------------------------------|------------------------5-------|
|6-------1-----1-3-------5-----5-|6-------6-------8---------------|

 |    |    |    |    |    |    |    |
|--------------------------------|--------------------------------|
|--------------------------------|--------------------------------|
|6-----6-----------------5-------|6-------6-------5---------------|
|--------6-----6-8---------------|------------------------8-----8-|

 |    |    |    |    |    |    |    |
|--------------------------------|--------------------------------|
|--------------------------------|--------------------------------|
|--------------------------------|--------------------------------|
|6-----6-1-------3-------5-------|6-------5-------6-------7-------|

 |    |    |    |    |    |    |    |
|--------------------------------|--------------------------------|
|--------------------------------|--------5-------6-------7-------|
|--------5-------6-------7-------|8-------------------------------|
|8-------------------------------|--------------------------------|

 |    |    |    |    |    |    |    |
|--------------------------------|--------------------------------|
|8-------------------------------|--------------------------------|
|------5-------6-------7-------8/|13------------------------------|
|--------------------------------|--------------------------------|

 |    |    |    |    |    |    |    |
|--------------------------------|--------------------------------|
|--------------------------------|--------------------------------|
|------------------------5-------|6-----6-5-------6-------7-------|
|6-------5-------6---------------|--------------------------------|

 |    |    |    |    |    |    |    |
|--------------------------------|--------------------------------|
|--------5-------6-------7-------|8-----8-6-------5---------------|
|8-------------------------------|------------------------8-----8-|
|--------------------------------|--------------------------------|

 |    |    |    |    |    |    |    |
|----------------6-------7-------|8-----8-7-------8-------9-------|
|--------8-----------------------|--------------------------------|
|6-------------------------------|--------------------------------|
|--------------------------------|--------------------------------|

 |    |    |    |    |    |    |    |
|10----10--------8-----8---------|7-----7-------------------------|
|--------8---------------6-------|----------------9-----9---------|
|--------------------------------|--------9-----------------------|
|--------------------------------|------------------------9-------|

 |    |    |    |    |    |    |    |
|--------------------------------|--------------------------------|
|--------------------------------|--------5-------6-------7-------|
|--------5-------6-------7-------|8-------------------------------|
|8-------------------------------|--------------------------------|

 |    |    |    |    |    |    |    |
|--------------------------------|--------------------------------|
|8-----8-------------------------|--------------------------------|
|--------5-------6-------7-------|8-----8-6-------5---------------|
|--------------------------------|------------------------8-------|

 |    |    |    |    |    |    |    |
|--------------------------------|--------------------------------|
|--------------------------------|--------------------------------|
|--------5-----5-8-----8-5/4/3---|--------5-----5-8-----8-5/----3-|
|6-----6-------------------------|6-----6-------------------------|

 |    |    |    |    |    |    |    |
|--------------------------------|--------------------------------|
|------------------------5-------|8-----8-6-------5---------------|
|--------5-------8---------------|------------------------8-------|
|6-----6-------------------------|--------------------------------|

 |    |    |    |    |    |    |    |
|------------------------5-----5-|6-----6-5-----5-----------------|
|--------5-----5-8-----8---------|----------------8-----8-5-----5-|
|6-----6-------------------------|--------------------------------|
|--------------------------------|--------------------------------|

 |    |    |    |    |    |    |    |
|--------------------------------|--------------------------------|
|------------------------5-------|8-----8-5-----------------------|
|--------5-------8---------------|----------------8-------5-------|
|6-----6-------------------------|--------------------------------|

 |    |    |    |    |    |    |    |
|--------------------------------|--------------------------------|
|--------------------------------|3-------------------------------|
|--------5-------6-------7-------|--------------------------------|
|8-------------------------------|--------1-------3-------5-------|

 |    |    |    |    |    |    |    |
|--------------------------------|--------------------------------|
|--------------------------------|--------------------------------|
|--------5-------6-------7-------|8-------6-------5---------------|
|6-----6-------------------------|------------------------8-------|

 |    |    |    |    |    |    |    |
|--------------------------------|--------------------------------|
|--------------------------------|--------------------------------|
|--------5-----5-8-----8-5-------|--------5-----5-8-----8-5-------|
|6-----6-----------------------8-|6-----6-----------------------8-|

 |    |    |    |    |    |    |    |
|--------------------------------|--------------------------------|
|--------------------------------|--------------------------------|
|--------5-----5-8-----8-5-------|--------5-----5-8-----8-5-----8-|
|6-----6-----------------------8-|6-----6-------------------------|

 |    |    |    |    |    |    |    |
|--------------------------------|--------------------------------|
|--------5-----5-8-------5-------|--------5-----5-8-----8-5/4/3---|
|6-----6-----------------------8-|6-----6-------------------------|
|--------------------------------|--------------------------------|

 |    |    |    |    |    |    |    |
|--------------------------------|--------------------------------|
|--------------------------------|--------------------------------|
|--------5-----5-8-----8-5/4---3-|--------5-----5-8-----8-5-------|
|6-----6-------------------------|6-----6-----------------------8-|

 |    |    |    |    |    |    |    |
|--------------------------------|--------------------------------|
|--------------------------------|--------------------------------|
|--------5-------6-------7-------|8-----8-6-------5/4-----3-------|
|8-------------------------------|--------------------------------|

 |    |    |    |    |    |    |    |
|--------------------------------|--------------------------------|
|--------------------------------|--------------------------------|
|--------5-------6-------7-------|8-----8-6-------5---------------|
|6-------------------------------|------------------------8-------|

 |    |    |    |    |    |    |    |
|--------------------------------|--------------------------------|
|--------------------------------|--------------------------------|
|--------------------------------|--------------------------------|
|6-------1-------3-------5-------|6-----6-1-----1-3-----3-5-----5-|

 |    |    |    |    |    |    |    |
|--------------------------------|--------------------------------|
|--------------------------------|--------------------------------|
|--------------------------------|------------------------5-------|
|6-------1-------3-------5-----5-|6-------6-------8---------------|

 |    |    |    |    |    |    |    |
|--------------------------------|--------------------------------|
|--------------------------------|--------------------------------|
|6-----6-----------------5-------|6-------6-------5---------------|
|--------6-------8---------------|------------------------8-------|

 |    |    |    |    |    |    |    |
|--------------------------------|--------------------------------|
|--------------------------------|--------------------------------|
|--------------------------------|--------------------------------|
|6-----6-1-------3-------5-------|6-------5-------6-------7-------|

 |    |    |    |    |    |    |    |
|--------------------------------|--------------------------------|
|--------------------------------|--------5-------6-------7-------|
|--------5-------6-------7-------|8-------------------------------|
|8-------------------------------|--------------------------------|

 |    |    |    |    |    |    |    |
|--------------------------------|--------------------------------|
|8-------------------------------|--------------------------------|
|------5-------6-------7-------8-|--------------------------------|
|--------------------------------|--------7-----6-----------------|

Almost there ...

Sign in to get your own page with links to favourite songs and more. You are just one click away...

Login with Facebook Login with Google