Log in

One click and you are in

Login with Facebook Login with Google

Why sign up and log in

Guitar Tabs Explorer
The Blues Brothers bass tabs for Expressway to your heart

Expressway To Your Heart bass tab by The Blues Brothers

The Blues Brothers bass tabs for Expressway to your heart

Bass tabs

Tuning: Standard (E A D G)

Difficulty: Novice

0:02 Intro
G|-------------------------------|
D|-------------------------------|
A|---1--2-2-2-2-4---1--2-2-2-2-4-|
E|-2--------------2--------------|

0:06 Couplet
G|-------------------------------------------------------------|
D|-------------------------------------------------------------|
A|---1--2-2-2-2-4---1--2-2-2-2-4---1--2-2-2-2-4---1--2-2-2-2-4-|
E|-2--------------2--------------2--------------2--------------|

G|-----------------------------------------------------------------------|
D|---1--2-2-2-2-4---1--2-2-2-2-4-----------------------------------------|
A|-2--------------2----------------1--2-2-2-2-4---1--2-2-2-2-4-----------|
E|-------------------------------2--------------2------------------------|

G|--------------------------------|
D|--------------------------------|
A|----1--2--1-----1--2--4-2-1-----|
E|-4-----------4--------------4-2-|

G|-------------------------------------------------------------|
D|-------------------------------------------------------------|
A|---1--2-2-2-2-4---1--2-2-2-2-4---1--2-2-2-2-4---1--2-2-2-2-4-|
E|-2--------------2--------------2--------------2--------------|

G|---------------------------------------------------------------------------------|
D|---------------------------------------------------------------------------------|
A|-6----6-4----2----1-1-1-1-1-1-1-4-6--6--6--6--4--4--4--4--2--2--2--2--1--1--1--1-|
E|---------------------------------------------------------------------------------|

G|-------------------------------|
D|-------------------------------|
A|---1--2-2-2-2-4---1--2-2-2-2-4-|
E|-2--------------2--------------|

1:12 Couplet
G|-------------------------------------------------------------|
D|-------------------------------------------------------------|
A|---1--2-2-2-2-4---1--2-2-2-2-4---1--2-2-2-2-4---1--2-2-2-2-4-|
E|-2--------------2--------------2--------------2--------------|

G|-----------------------------------------------------------------------|
D|---1--2-2-2-2-4---1--2-2-2-2-4-----------------------------------------|
A|-2--------------2----------------1--2-2-2-2-4---1--2-2-2-2-4-----------|
E|-------------------------------2--------------2------------------------|

G|------------------------------|
D|------------------------------|
A|----1--2--1-----1--2--4-2-1---|
E|-4-----------4--------------2-|

G|--------------------------------------------------------------|
D|--------------------------------------------------------------|
A|---1--2-2-2-2-4---1--2-2-2-2-4---1--2-2-2-2-4---1-0-0-0-0-----|
E|-2--------------2--------------2--------------2-----------4-2-|

1:53 Solo
G|-------------------------------------------------------------|
D|-------------------------------------------------------------|X2
A|---1--2-2-2-2-4---1--2-2-2-2-4---1--2-2-2-2-4---1--2-2-2-2-4-|
E|-2--------------2--------------2--------------2--------------|

G|------------------------------|
D|------------------------------|
A|----1--2--1-----1--2--4-2-1---|
E|-4-----------4--------------2-|

G|-------------------------------------------------------------|
D|-------------------------------------------------------------|X2
A|---1--2-2-2-2-4---1--2-2-2-2-4---1--2-2-2-2-4---1--2-2-2-2-4-|
E|-2--------------2--------------2--------------2--------------|

G|-------------------------------------------------------------------2-----|
D|-----------------------7-7---7-7---7-7---7-7-------------------------2---|
A|-6----4----2----1----5-----5-----5-----5-------3-3-3-3-2-2-2-2-1-1-----1-|
E|-------------------------------------------------------------------------|

G|--------------------------|
D|--------------------------|
A|-2-3-4-6-6--4-4--2-2--1-1-|
E|--------------------------|

Almost there ...

Sign in to get your own page with links to favourite songs and more. You are just one click away...

Login with Facebook Login with Google