Log in

One click and you are in

Login with Facebook Login with Google

Why sign up and log in

Guitar Tabs Explorer
The Blues Brothers bass tabs for Everybody needs somebody

Everybody Needs Somebody bass tab by The Blues Brothers

The Blues Brothers bass tabs for Everybody needs somebody

Bass tabs

Blues Brothers - Everybody needs somebody basstab

TablEdited by Jan Bjorklund  <jani_bjorklund@yahoo.se>
You are welcome to request for tabs!
Fingering and positions as suggested by TablEdit, please use common sense.


Tuning : E A D G 	Time Signature: 4/4

 |    |    |    |    |    |    |    |
|--------------------------------|--------------------------------|
|----------------2-------2-------|----------------2-------2-------|
|2-------2-----------------------|0-------0-----------------------|
|--------------------------------|--------------------------------|

 |    |    |    |    |    |    |    |
|--------------------------------|--------------------------------|
|----------------2-------2-------|----------------2-------2-------|
|2-------2-----------------------|0-------0-----------------------|
|--------------------------------|--------------------------------|

 |    |    |    |    |    |    |    |
|--------------------------------|--------------------------------|
|----------------2-------2-------|----------------2-------2-------|
|2-------2-----------------------|0-------0-----------------------|
|--------------------------------|--------------------------------|

 |    |    |    |    |    |    |    |
|--------------------------------|--------------------------------|
|----------------2-------2-------|----------------2-------2-------|
|2-------2-----------------------|0-------0-----------------------|
|--------------------------------|--------------------------------|

 |    |    |    |    |    |    |    |
|--------------------------------|--------------------------------|
|----------------2-------2-------|----------------2-------2-------|
|2-------2-----------------------|0-------0-----------------------|
|--------------------------------|--------------------------------|

 |    |    |    |    |    |    |    |
|--------------------------------|--------------------------------|
|----------------2-------2-------|----------------2-------2-------|
|2-------2-----------------------|0-------0-----------------------|
|--------------------------------|--------------------------------|

 |    |    |    |    |    |    |    |
|--------------------------------|--------------------------------|
|----------------2-------2-------|----------------2-------2-------|
|2-------2-----------------------|0-------0-----------------------|
|--------------------------------|--------------------------------|

 |    |    |    |    |    |    |    |
|--------------------------------|--------------------------------|
|----------------2-------2-------|----------------2-------2-------|
|2-------2-----------------------|0-------0-----------------------|
|--------------------------------|--------------------------------|

 |    |    |    |    |    |    |    |
|--------------------------------|--------------------------------|
|----------------2-------2-------|----------------2-------2-------|
|2-------2-----------------------|0-------0-----------------------|
|--------------------------------|--------------------------------|

 |    |    |    |    |    |    |    |
|--------------------------------|--------------------------------|
|----------------2-------2-------|----------------2-------2-------|
|2-------2-----------------------|0-------0-----------------------|
|--------------------------------|--------------------------------|

 |    |    |    |    |    |    |    |
|--------------------------------|--------------------------------|
|----------------2-------2-------|----------------2-------2-------|
|2-------2-----------------------|0-------0-----------------------|
|--------------------------------|--------------------------------|

 |    |    |    |    |    |    |    |
|--------------------------------|--------------------------------|
|----------------2-------2-------|----------------2-------2-------|
|2-------2-----------------------|0-------0-----------------------|
|--------------------------------|--------------------------------|

 |    |    |    |    |    |    |    |
|--------------------------------|--------------------------------|
|----------------2-------2-------|----------------2-------2-------|
|2-------2-----------------------|0-------0-----------------------|
|--------------------------------|--------------------------------|

 |    |    |    |    |    |    |    |
|--------------------------------|--------------------------------|
|----------------2-------2-------|----------------2-------2-------|
|2-------2-----------------------|0-------0-----------------------|
|--------------------------------|--------------------------------|

 |    |    |    |    |    |    |    |
|--------------------------------|--------------------------------|
|----------------2-------2-------|----------------2-------2-------|
|2-------2-----------------------|0-------0-----------------------|
|--------------------------------|--------------------------------|

 |    |    |    |    |    |    |    |
|--------------------------------|--------------------------------|
|----------------2-------2-------|----------------2-------2-------|
|2-------2-----------------------|0-------0-----------------------|
|--------------------------------|--------------------------------|

 |    |    |    |    |    |    |    |
|--------------------------------|--------------------------------|
|----------------2-------2-------|----------------2-------2-------|
|2-------2-----------------------|0-------0-------------------1---|
|--------------------------------|--------------------------------|

 |    |    |    |    |    |    |    |
|--------------------------------|--------------------------------|
|----------------2-------2-------|----------------2-------2-------|
|2-------2-----------------------|0-------0-----------------------|
|--------------------------------|--------------------------------|

 |    |    |    |    |    |    |    |
|--------------------------------|--------------------------------|
|--------------------------------|--------------------------------|
|--------------------------------|--------------------------------|
|4-------4-------4-------4-------|4-------4-------4-------4-------|

 |    |    |    |    |    |    |    |
|--------------------------------|--------------------------------|
|2-------2-------2-------2-------|2-------2-------2-------4-------|
|--------------------------------|--------------------------------|
|--------------------------------|--------------------------------|

 |    |    |    |    |    |    |    |
|1-------1-------1-------1-------|1-------1-------1-------1-------|
|--------------------------------|--------------------------------|
|--------------------------------|--------------------------------|
|--------------------------------|--------------------------------|

 |    |    |    |    |    |    |    |
|--------------------------------|--------------------------------|
|4-------4-------4-------4-------|4-------2-------1---------------|
|--------------------------------|------------------------4-------|
|--------------------------------|--------------------------------|

 |    |    |    |    |    |    |    |
|--------------------------------|------------------------4-------|
|------------------------4-------|2-------------------------------|
|2-------------------------------|--------------------------------|
|--------------------------------|--------------------------------|

 |    |    |    |    |    |    |    |
|--------------------------------|------------------------4-------|
|------------------------4-------|2-------------------------------|
|2-------------------------------|--------------------------------|
|--------------------------------|--------------------------------|

 |    |    |    |    |    |    |    |
|--------------------------------|------------------------4-------|
|------------------------4-------|2-------------------------------|
|2-------------------------------|--------------------------------|
|--------------------------------|--------------------------------|

 |    |    |    |    |    |    |    |
|--------------------------------|------------------------4-------|
|------------------------4-------|2-------------------------------|
|2-------------------------------|--------------------------------|
|--------------------------------|--------------------------------|

 |    |    |    |    |    |    |    |
|--------------------------------|--------------------------------|
|--------------------------------|--------------------------------|
|2-------------------------------|--------------------------------|
|--------------------------------|--------------------------------|

 |    |    |    |    |    |    |    |
|--------------------------------|--------------------------------|
|--------------------------------|--------------------------------|
|--------------------------------|--------------------------------|
|--------------------------------|--------------------------------|

 |    |    |    |    |    |    |    |
|--------------------------------|--------------------------------|
|----------------2-------2-------|----------------2-------2-------|
|2-------2-----------------------|0-------0-----------------------|
|--------------------------------|--------------------------------|

 |    |    |    |    |    |    |    |
|--------------------------------|--------------------------------|
|----------------2-------2-------|----------------2-------2-------|
|2-------2-----------------------|0-------0-----------------------|
|--------------------------------|--------------------------------|

 |    |    |    |    |    |    |    |
|--------------------------------|--------------------------------|
|----------------2-------2-------|----------------2-------2-------|
|2-------2-----------------------|0-------0-----------------------|
|--------------------------------|--------------------------------|

 |    |    |    |    |    |    |    |
|--------------------------------|--------------------------------|
|----------------2-------2-------|----------------2-------2-------|
|2-------2-----------------------|0-------0-----------------------|
|--------------------------------|--------------------------------|

 |    |    |    |    |    |    |    |
|--------------------------------|--------------------------------|
|----------------2-------2-------|----------------2-------2-------|
|2-------2-----------------------|0-------0-----------------------|
|--------------------------------|--------------------------------|

 |    |    |    |    |    |    |    |
|--------------------------------|--------------------------------|
|----------------2-------2-------|----------------2-------2-------|
|2-------2-----------------------|0-------0-----------------------|
|--------------------------------|--------------------------------|

 |    |    |    |    |    |    |    |
|--------------------------------|--------------------------------|
|----------------2-------2-------|----------------2-------2-------|
|2-------2-----------------------|0-------0-----------------------|
|--------------------------------|--------------------------------|

 |    |    |    |    |    |    |    |
|--------------------------------|--------------------------------|
|----------------2-------2-------|----------------2-------2-------|
|2-------2-----------------------|0-------0-----------------------|
|--------------------------------|--------------------------------|

 |    |    |    |    |    |    |    |
|--------------------------------|--------------------------------|
|----------------2-------2-------|----------------2-------2-------|
|2-------2-----------------------|0-------0-----------------------|
|--------------------------------|--------------------------------|

 |    |    |    |    |    |    |    |
|--------------------------------|--------------------------------|
|----------------2-------2-------|----------------2-------2-------|
|2-------2-----------------------|0-------0-----------------------|
|--------------------------------|--------------------------------|

 |    |    |    |    |    |    |    |
|--------------------------------|--------------------------------|
|----------------2-------2-------|----------------2-------2-------|
|2-------2-----------------------|0-------0-----------------------|
|--------------------------------|--------------------------------|

 |    |    |    |    |    |    |    |
|--------------------------------|--------------------------------|
|----------------2-------2-------|----------------2-------2-------|
|2-------2-----------------------|0-------0-----------------------|
|--------------------------------|--------------------------------|

 |    |    |    |    |    |    |    |
|--------------------------------|--------------------------------|
|----------------2-------2-------|----------------2-------2-------|
|2-------2-----------------------|0-------0-----------------------|
|--------------------------------|--------------------------------|

 |    |    |    |    |    |    |    |
|--------------------------------|--------------------------------|
|----------------2-------2-------|----------------2-------2-------|
|2-------2-----------------------|0-------0-------------------1---|
|--------------------------------|--------------------------------|

 |    |    |    |    |    |    |    |
|--------------------------------|--------------------------------|
|----------------2-------2-------|----------------2-------2-------|
|2-------2-----------------------|0-------0-----------------------|
|--------------------------------|--------------------------------|

 |    |    |    |    |    |    |    |
|--------------------------------|--------------------------------|
|--------------------------------|--------------------------------|
|--------------------------------|--------------------------------|
|4-------4-------4-------4-------|4-------4-------4-------4-------|

 |    |    |    |    |    |    |    |
|--------------------------------|--------------------------------|
|2-------2-------2-------2-------|2-------2-------2-------4-------|
|--------------------------------|--------------------------------|
|--------------------------------|--------------------------------|

 |    |    |    |    |    |    |    |
|1-------1-------1-------1-------|1-------1-------1-------1-------|
|--------------------------------|--------------------------------|
|--------------------------------|--------------------------------|
|--------------------------------|--------------------------------|

 |    |    |    |    |    |    |    |
|--------------------------------|--------------------------------|
|4-------4-------4-------4-------|4-------2-------1---------------|
|--------------------------------|------------------------4-------|
|--------------------------------|--------------------------------|

 |    |    |    |    |    |    |    |
|--------------------------------|------------------------4-------|
|------------------------4-------|2-------------------------------|
|2-------------------------------|--------------------------------|
|--------------------------------|--------------------------------|

 |    |    |    |    |    |    |    |
|--------------------------------|------------------------4-------|
|------------------------4-------|2-------------------------------|
|2-------------------------------|--------------------------------|
|--------------------------------|--------------------------------|

 |    |    |    |    |    |    |    |
|--------------------------------|------------------------4-------|
|------------------------4-------|2-------------------------------|
|2-------------------------------|--------------------------------|
|--------------------------------|--------------------------------|

 |    |    |    |    |    |    |    |
|--------------------------------|------------------------4-------|
|------------------------4-------|2-------------------------------|
|2-------------------------------|--------------------------------|
|--------------------------------|--------------------------------|

 |    |    |    |    |    |    |    |
|--------------------------------|--------------------------------|
|--------------------------------|--------------------------------|
|2-------------------------------|--------------------------------|
|--------------------------------|--------------------------------|

 |    |    |    |    |    |    |    |
|--------------------------------|--------------------------------|
|--------------------------------|--------------------------------|
|--------------------------------|--------------------------------|
|--------------------------------|--------------------------------|

 |    |    |    |    |    |    |    |
|--------------------------------|--------------------------------|
|--------------------------------|--------------------------------|
|--------------------------------|--------------------------------|
|--------------------------------|--------------------------------|

 |    |    |    |    |    |    |    |
|--------------------------------|--------------------------------|
|--------------------------------|--------------------------------|
|--------------------------------|--------------------------------|
|--------------------------------|--------------------------------|

 |    |    |    |    |    |    |    |
|--------------------------------|--------------------------------|
|----------------2-------2-------|----------------2-------2-------|
|2-------2-----------------------|0-------0-----------------------|
|--------------------------------|--------------------------------|

 |    |    |    |    |    |    |    |
|--------------------------------|--------------------------------|
|----------------2-------2-------|----------------2-------2-------|
|2-------2-----------------------|0-------0-----------------------|
|--------------------------------|--------------------------------|

 |    |    |    |    |    |    |    |
|--------------------------------|--------------------------------|
|----------------2-------2-------|----------------2-------2-------|
|2-------2-----------------------|0-------0-------------------1---|
|--------------------------------|--------------------------------|

 |    |    |    |    |    |    |    |
|--------------------------------|--------------------------------|
|----------------2-------2-------|----------------2-------2-------|
|2-------2-----------------------|0-------0-----------------------|
|--------------------------------|--------------------------------|

 |    |    |    |    |    |    |    |
|--------------------------------|--------------------------------|
|----------------2-------2-------|----------------2-------2-------|
|2-------2-----------------------|0-------0-----------------------|
|--------------------------------|--------------------------------|

 |    |    |    |    |    |    |    |
|--------------------------------|--------------------------------|
|----------------2-------2-------|----------------2-------2-------|
|2-------2-----------------------|0-------0-----------------------|
|--------------------------------|--------------------------------|

 |    |    |    |    |    |    |    |
|--------------------------------|--------------------------------|
|----------------2-------2-------|----------------2-------2-------|
|2-------2-----------------------|0-------0-----------------------|
|--------------------------------|--------------------------------|

 |    |    |    |    |    |    |    |
|--------------------------------|--------------------------------|
|----------------2-------2-------|----------------2-------2-------|
|2-------2-----------------------|0-------0-----------------------|
|--------------------------------|--------------------------------|

 |    |    |    |    |    |    |    |
|--------------------------------|--------------------------------|
|----------------2-------2-------|----------------2-------2-------|
|2-------2-----------------------|0-------0-----------------------|
|--------------------------------|--------------------------------|

 |    |    |    |    |    |    |    |
|--------------------------------|--------------------------------|
|----------------2-------2-------|----------------2-------2-------|
|2-------2-----------------------|0-------0-----------------------|
|--------------------------------|--------------------------------|

 |    |    |    |    |    |    |    |
|--------------------------------|--------------------------------|
|----------------2-------2-------|----------------2-------2-------|
|2-------2-----------------------|0-------0-----------------------|
|--------------------------------|--------------------------------|

 |    |    |    |    |    |    |    |
|--------------------------------|--------------------------------|
|----------------2-------2-------|----------------2-------2-------|
|2-------2-----------------------|0-------0-----------------------|
|--------------------------------|--------------------------------|

 |    |    |    |    |    |    |    |
|--------------------------------|--------------------------------|
|----------------2-------2-------|----------------2-------2-------|
|2-------2-----------------------|0-------0-----------------------|
|--------------------------------|--------------------------------|

 |    |    |    |    |    |    |    |
|--------------------------------|--------------------------------|
|----------------2-------2-------|----------------2-------2-------|
|2-------2-----------------------|0-------0-----------------------|
|--------------------------------|--------------------------------|

 |    |    |    |    |    |    |    |
|--------------------------------|--------------------------------|
|----------------2-------2-------|----------------2-------2-------|
|2-------2-----------------------|0-------0-----------------------|
|--------------------------------|--------------------------------|

 |    |    |    |    |    |    |    |
|--------------------------------|--------------------------------|
|----------------2-------2-------|----------------2-------2-------|
|2-------2-----------------------|0-------0-----------------------|
|--------------------------------|--------------------------------|

 |    |    |    |
|--------------------------------|
|--------------------------------|
|2-------------------------------|
|--------------------------------|

Other versions of Everybody Needs Somebody

Everybody needs somebody (Ver. 2)Bass tabs

Almost there ...

Sign in to get your own page with links to favourite songs and more. You are just one click away...

Login with Facebook Login with Google