Log in

One click and you are in

Login with Facebook Login with Google

Why sign up and log in

Guitar Tabs Explorer
The Blues Brothers bass tabs for Blue grass theory

Blue Grass Theory bass tab by The Blues Brothers

The Blues Brothers bass tabs for Blue grass theory

Bass tabs

(wah-wah pedal) (volume pedal)(clear on22)
(intro)
G -----------------------|----------------------|---------------------|
D -----5--4--------------|---5----3-------------|--7------------------|
A ------------7----------|------------6---------|------7-----9--------|
E ----------------------|----------------------|----------------------|
(repeat 3 times)

(verse1)
G--55------------------|
D-------77-------------|
A-------------99-------|
E----------8h9---------|
(play 2 times)

(verse 2)
G ----------------------|----------------------|---------------------|
D -----5'”4/7------------|----44----------------|---------------------|
A ------------99--------|-----------12---------|---------------------|
E ----------------------|----------------14----|---------------------|
(play 2 times)

(guitar solo)
(bass solo)
G ----------------------|--5-------------------|---------------------|
D ------'”4h7------------|----5-----------------|--8/15---------------|
A -------------2p3------|------00-------3p6----|---------4b9r3-------|
E ----------------------|-----------9----------|---------------------|

~~~~~~~~~~~~~~~~~~~~~~~~~~~~~~~~~~~~~~~~~~~~~~~~~~~~~~~~~~~~~~~~~~~~~~

G ----------------------|-1--------------------|---------------------|
D -----44---4-----------|---4------------------|---------------------|
A ----------9-----------|----7h3---6p9---------|---------------------|
E ----------7-----------|---------------5--88--|---------------------|

~~~~~~~~~~~~~~~~~~~~~~~~~~~~~~~~~~~~~~~~~~~~~~~~~~~~~~~~~~~~~~~~~~~~~~
(end the song with verse 1)

Almost there ...

Sign in to get your own page with links to favourite songs and more. You are just one click away...

Login with Facebook Login with Google